  0
SECTION
  2
HEADER
  9
$ACADVER
  1
AC1015
  9
$ACADMAINTVER
 70
     6
  9
$DWGCODEPAGE
  3
ANSI_1252
  9
$INSBASE
 10
0.0
 20
0.0
 30
0.0
  9
$EXTMIN
 10
-20.0
 20
-20.0
 30
0.0
  9
$EXTMAX
 10
20.0
 20
20.0
 30
0.0
  9
$LIMMIN
 10
0.0
 20
0.0
  9
$LIMMAX
 10
420.0
 20
297.0
  9
$ORTHOMODE
 70
     0
  9
$REGENMODE
 70
     1
  9
$FILLMODE
 70
     1
  9
$QTEXTMODE
 70
     0
  9
$MIRRTEXT
 70
     1
  9
$LTSCALE
 40
1.0
  9
$ATTMODE
 70
     1
  9
$TEXTSIZE
 40
3.5
  9
$TRACEWID
 40
1.0
  9
$TEXTSTYLE
  7
Standard
  9
$CLAYER
  8
0
  9
$CELTYPE
  6
ByLayer
  9
$CECOLOR
 62
   256
  9
$CELTSCALE
 40
1.0
  9
$DISPSILH
 70
     0
  9
$DIMSCALE
 40
1.0
  9
$DIMASZ
 40
3.302
  9
$DIMEXO
 40
1.0
  9
$DIMDLI
 40
3.75
  9
$DIMRND
 40
0.0
  9
$DIMDLE
 40
0.0
  9
$DIMEXE
 40
1.0
  9
$DIMTP
 40
0.0
  9
$DIMTM
 40
0.0
  9
$DIMTXT
 40
3.5
  9
$DIMCEN
 40
2.5
  9
$DIMTSZ
 40
0.0
  9
$DIMTOL
 70
     0
  9
$DIMLIM
 70
     0
  9
$DIMTIH
 70
     1
  9
$DIMTOH
 70
     1
  9
$DIMSE1
 70
     0
  9
$DIMSE2
 70
     0
  9
$DIMTAD
 70
     1
  9
$DIMZIN
 70
     1
  9
$DIMBLK
  1

  9
$DIMASO
 70
     1
  9
$DIMSHO
 70
     1
  9
$DIMPOST
  1

  9
$DIMAPOST
  1

  9
$DIMALT
 70
     0
  9
$DIMALTD
 70
     3
  9
$DIMALTF
 40
0.0393700787
  9
$DIMLFAC
 40
1.0
  9
$DIMTOFL
 70
     1
  9
$DIMTVP
 40
0.0
  9
$DIMTIX
 70
     0
  9
$DIMSOXD
 70
     0
  9
$DIMSAH
 70
     0
  9
$DIMBLK1
  1

  9
$DIMBLK2
  1

  9
$DIMSTYLE
  2
ISO-25
  9
$DIMCLRD
 70
     0
  9
$DIMCLRE
 70
     0
  9
$DIMCLRT
 70
     0
  9
$DIMTFAC
 40
1.0
  9
$DIMGAP
 40
1.524
  9
$DIMJUST
 70
     0
  9
$DIMSD1
 70
     0
  9
$DIMSD2
 70
     0
  9
$DIMTOLJ
 70
     0
  9
$DIMTZIN
 70
     1
  9
$DIMALTZ
 70
     0
  9
$DIMALTTZ
 70
     0
  9
$DIMUPT
 70
     0
  9
$DIMDEC
 70
     2
  9
$DIMTDEC
 70
     2
  9
$DIMALTU
 70
     2
  9
$DIMALTTD
 70
     3
  9
$DIMTXSTY
  7
Standard
  9
$DIMAUNIT
 70
     0
  9
$DIMADEC
 70
     2
  9
$DIMALTRND
 40
0.0
  9
$DIMAZIN
 70
     0
  9
$DIMDSEP
 70
    44
  9
$DIMATFIT
 70
     3
  9
$DIMFRAC
 70
     0
  9
$DIMLDRBLK
  1

  9
$DIMLUNIT
 70
     2
  9
$DIMLWD
 70
    -2
  9
$DIMLWE
 70
    -2
  9
$DIMTMOVE
 70
     0
  9
$LUNITS
 70
     2
  9
$LUPREC
 70
     2
  9
$SKETCHINC
 40
1.0
  9
$FILLETRAD
 40
10.0
  9
$AUNITS
 70
     0
  9
$AUPREC
 70
     2
  9
$MENU
  1
.
  9
$ELEVATION
 40
0.0
  9
$PELEVATION
 40
0.0
  9
$THICKNESS
 40
0.0
  9
$LIMCHECK
 70
     0
  9
$CHAMFERA
 40
0.0
  9
$CHAMFERB
 40
0.0
  9
$CHAMFERC
 40
0.0
  9
$CHAMFERD
 40
0.0
  9
$SKPOLY
 70
     0
  9
$TDCREATE
 40
2458862.402976967
  9
$TDUCREATE
 40
2458862.402976967
  9
$TDUPDATE
 40
2458862.403008669
  9
$TDUUPDATE
 40
2458862.403008669
  9
$TDINDWG
 40
0.0000000116
  9
$TDUSRTIMER
 40
0.0000000116
  9
$USRTIMER
 70
     1
  9
$ANGBASE
 50
0.0
  9
$ANGDIR
 70
     0
  9
$PDMODE
 70
     0
  9
$PDSIZE
 40
-1.0
  9
$PLINEWID
 40
0.0
  9
$SPLFRAME
 70
     0
  9
$SPLINETYPE
 70
     6
  9
$SPLINESEGS
 70
     8
  9
$HANDSEED
  5
3D8
  9
$SURFTAB1
 70
     6
  9
$SURFTAB2
 70
     6
  9
$SURFTYPE
 70
     6
  9
$SURFU
 70
     6
  9
$SURFV
 70
     6
  9
$UCSBASE
  2

  9
$UCSNAME
  2

  9
$UCSORG
 10
0.0
 20
0.0
 30
0.0
  9
$UCSXDIR
 10
1.0
 20
0.0
 30
0.0
  9
$UCSYDIR
 10
0.0
 20
1.0
 30
0.0
  9
$UCSORTHOREF
  2

  9
$UCSORTHOVIEW
 70
     0
  9
$UCSORGTOP
 10
0.0
 20
0.0
 30
0.0
  9
$UCSORGBOTTOM
 10
0.0
 20
0.0
 30
0.0
  9
$UCSORGLEFT
 10
0.0
 20
0.0
 30
0.0
  9
$UCSORGRIGHT
 10
0.0
 20
0.0
 30
0.0
  9
$UCSORGFRONT
 10
0.0
 20
0.0
 30
0.0
  9
$UCSORGBACK
 10
0.0
 20
0.0
 30
0.0
  9
$PUCSBASE
  2

  9
$PUCSNAME
  2

  9
$PUCSORG
 10
0.0
 20
0.0
 30
0.0
  9
$PUCSXDIR
 10
1.0
 20
0.0
 30
0.0
  9
$PUCSYDIR
 10
0.0
 20
1.0
 30
0.0
  9
$PUCSORTHOREF
  2

  9
$PUCSORTHOVIEW
 70
     0
  9
$PUCSORGTOP
 10
0.0
 20
0.0
 30
0.0
  9
$PUCSORGBOTTOM
 10
0.0
 20
0.0
 30
0.0
  9
$PUCSORGLEFT
 10
0.0
 20
0.0
 30
0.0
  9
$PUCSORGRIGHT
 10
0.0
 20
0.0
 30
0.0
  9
$PUCSORGFRONT
 10
0.0
 20
0.0
 30
0.0
  9
$PUCSORGBACK
 10
0.0
 20
0.0
 30
0.0
  9
$USERI1
 70
     0
  9
$USERI2
 70
     0
  9
$USERI3
 70
     0
  9
$USERI4
 70
     0
  9
$USERI5
 70
     0
  9
$USERR1
 40
0.0
  9
$USERR2
 40
0.0
  9
$USERR3
 40
0.0
  9
$USERR4
 40
0.0
  9
$USERR5
 40
0.0
  9
$WORLDVIEW
 70
     1
  9
$SHADEDGE
 70
     3
  9
$SHADEDIF
 70
    70
  9
$TILEMODE
 70
     1
  9
$MAXACTVP
 70
    64
  9
$PINSBASE
 10
0.0
 20
0.0
 30
0.0
  9
$PLIMCHECK
 70
     0
  9
$PEXTMIN
 10
-20.0
 20
-18.7
 30
0.0
  9
$PEXTMAX
 10
20.0
 20
0.0
 30
0.0
  9
$PLIMMIN
 10
-23.1128404669
 20
-19.8673151751
  9
$PLIMMAX
 10
23.1128404669
 20
12.8175097276
  9
$UNITMODE
 70
     0
  9
$VISRETAIN
 70
     1
  9
$PLINEGEN
 70
     0
  9
$PSLTSCALE
 70
     1
  9
$TREEDEPTH
 70
  3020
  9
$CMLSTYLE
  2
Standard
  9
$CMLJUST
 70
     0
  9
$CMLSCALE
 40
20.0
  9
$PROXYGRAPHICS
 70
     1
  9
$MEASUREMENT
 70
     1
  9
$CELWEIGHT
370
    -1
  9
$ENDCAPS
280
     0
  9
$JOINSTYLE
280
     0
  9
$LWDISPLAY
290
     1
  9
$INSUNITS
 70
     4
  9
$HYPERLINKBASE
  1

  9
$STYLESHEET
  1

  9
$XEDIT
290
     1
  9
$CEPSNTYPE
380
     0
  9
$PSTYLEMODE
290
     1
  9
$FINGERPRINTGUID
  2
{bb8f5e6b-db3e-499b-b010-f58425be1d84}
  9
$VERSIONGUID
  2
{FAEB1C32-E019-11D5-929B-00C0DF256EC4}
  9
$EXTNAMES
290
     1
  9
$PSVPSCALE
 40
0.0
  9
$OLESTARTUP
290
     0
  0
ENDSEC
  0
SECTION
  2
CLASSES
  0
CLASS
  1
ACDBDICTIONARYWDFLT
  2
AcDbDictionaryWithDefault
  3
ObjectDBX Classes
 90
        0
280
     0
281
     0
  0
CLASS
  1
VISUALSTYLE
  2
AcDbVisualStyle
  3
ObjectDBX Classes
 90
     4095
280
     0
281
     0
  0
CLASS
  1
MATERIAL
  2
AcDbMaterial
  3
ObjectDBX Classes
 90
     1153
280
     0
281
     0
  0
CLASS
  1
SCALE
  2
AcDbScale
  3
ObjectDBX Classes
 90
     1153
280
     0
281
     0
  0
CLASS
  1
TABLESTYLE
  2
AcDbTableStyle
  3
ObjectDBX Classes
 90
     4095
280
     0
281
     0
  0
CLASS
  1
MLEADERSTYLE
  2
AcDbMLeaderStyle
  3
ACDB_MLEADERSTYLE_CLASS
 90
     4095
280
     0
281
     0
  0
CLASS
  1
SUN
  2
AcDbSun
  3
SCENEOE
 90
     1153
280
     0
281
     0
  0
CLASS
  1
ACDBPLACEHOLDER
  2
AcDbPlaceHolder
  3
ObjectDBX Classes
 90
        0
280
     0
281
     0
  0
CLASS
  1
LAYOUT
  2
AcDbLayout
  3
ObjectDBX Classes
 90
        0
280
     0
281
     0
  0
ENDSEC
  0
SECTION
  2
TABLES
  0
TABLE
  2
VPORT
  5
8
330
0
100
AcDbSymbolTable
 70
     1
  0
VPORT
  5
29
330
8
100
AcDbSymbolTableRecord
100
AcDbViewportTableRecord
  2
*Active
 70
     0
 10
0.0
 20
0.0
 11
1.0
 21
1.0
 12
0.0
 22
0.0
 13
0.0
 23
0.0
 14
10.0
 24
10.0
 15
10.0
 25
10.0
 16
0.0
 26
0.0
 36
1.0
 17
0.0
 27
0.0
 37
0.0
 40
40.8
 41
1.0
 42
50.0
 43
0.0
 44
0.0
 50
0.0
 51
0.0
 71
     0
 72
   100
 73
     1
 74
     3
 75
     0
 76
     0
 77
     0
 78
     0
281
     0
 65
     1
110
0.0
120
0.0
130
0.0
111
1.0
121
0.0
131
0.0
112
0.0
122
1.0
132
0.0
 79
     0
146
0.0
  0
ENDTAB
  0
TABLE
  2
LTYPE
  5
5
330
0
100
AcDbSymbolTable
 70
     6
  0
LTYPE
  5
14
330
5
100
AcDbSymbolTableRecord
100
AcDbLinetypeTableRecord
  2
ByBlock
 70
     0
  3

 72
    65
 73
     0
 40
0.0
  0
LTYPE
  5
15
330
5
100
AcDbSymbolTableRecord
100
AcDbLinetypeTableRecord
  2
ByLayer
 70
     0
  3

 72
    65
 73
     0
 40
0.0
  0
LTYPE
  5
16
330
5
100
AcDbSymbolTableRecord
100
AcDbLinetypeTableRecord
  2
Continuous
 70
     0
  3
Solid line
 72
    65
 73
     0
 40
0.0
  0
LTYPE
  5
6E
330
5
100
AcDbSymbolTableRecord
100
AcDbLinetypeTableRecord
  2
HIDDEN
 70
     0
  3
Hidden __ __ __ __ __ __ __ __ __ __ __ __ __ __
 72
    65
 73
     2
 40
1.905
 49
1.27
 74
     0
 49
-0.635
 74
     0
  0
LTYPE
  5
6F
330
5
100
AcDbSymbolTableRecord
100
AcDbLinetypeTableRecord
  2
PHANTOM
 70
     0
  3
Phantom ______  __  __  ______  __  __  ______
 72
    65
 73
     6
 40
12.7
 49
6.35
 74
     0
 49
-1.27
 74
     0
 49
1.27
 74
     0
 49
-1.27
 74
     0
 49
1.27
 74
     0
 49
-1.27
 74
     0
  0
LTYPE
  5
70
330
5
100
AcDbSymbolTableRecord
100
AcDbLinetypeTableRecord
  2
CENTER
 70
     0
  3
Center ____ _ ____ _ ____ _ ____ _ ____ _ ____
 72
    65
 73
     4
 40
10.16
 49
6.35
 74
     0
 49
-1.27
 74
     0
 49
1.27
 74
     0
 49
-1.27
 74
     0
  0
LTYPE
  5
71
330
5
100
AcDbSymbolTableRecord
100
AcDbLinetypeTableRecord
  2
CENTERX2
 70
     0
  3
Center (2x) ________  __  ________  __  _____
 72
    65
 73
     4
 40
20.32
 49
12.7
 74
     0
 49
-2.54
 74
     0
 49
2.54
 74
     0
 49
-2.54
 74
     0
  0
LTYPE
  5
72
330
5
100
AcDbSymbolTableRecord
100
AcDbLinetypeTableRecord
  2
DOT2
 70
     0
  3
Dot (.5x) ........................................
 72
    65
 73
     2
 40
0.635
 49
0.0
 74
     0
 49
-0.635
 74
     0
  0
ENDTAB
  0
TABLE
  2
LAYER
  5
2
330
0
100
AcDbSymbolTable
 70
     1
  0
LAYER
  5
10
330
2
100
AcDbSymbolTableRecord
100
AcDbLayerTableRecord
  2
0
 70
     0
 62
     7
  6
Continuous
370
    -3
390
F
  0
ENDTAB
  0
TABLE
  2
STYLE
  5
3
330
0
100
AcDbSymbolTable
 70
     1
  0
STYLE
  5
11
330
3
100
AcDbSymbolTableRecord
100
AcDbTextStyleTableRecord
  2
Standard
 70
     0
 40
0.0
 41
1.0
 50
0.0
 71
     0
 42
3.5
  3
txt
  4

  0
ENDTAB
  0
TABLE
  2
VIEW
  5
6
330
0
100
AcDbSymbolTable
 70
     0
  0
ENDTAB
  0
TABLE
  2
UCS
  5
7
330
0
100
AcDbSymbolTable
 70
     0
  0
ENDTAB
  0
TABLE
  2
APPID
  5
9
330
0
100
AcDbSymbolTable
 70
     1
  0
APPID
  5
12
330
9
100
AcDbSymbolTableRecord
100
AcDbRegAppTableRecord
  2
ACAD
 70
     0
  0
ENDTAB
  0
TABLE
  2
DIMSTYLE
  5
A
330
0
100
AcDbSymbolTable
 70
     1
100
AcDbDimStyleTable
  0
DIMSTYLE
105
27
330
A
100
AcDbSymbolTableRecord
100
AcDbDimStyleTableRecord
  2
ISO-25
 70
     0
 41
2.5
 42
0.625
 43
3.75
 44
1.25
 73
     0
 74
     0
 77
     1
 78
     8
140
2.5
141
2.5
143
0.0393700787
147
0.625
171
     3
172
     1
178
     0
271
     2
272
     2
274
     3
278
    44
283
     0
284
     8
340
11
  0
ENDTAB
  0
TABLE
  2
BLOCK_RECORD
  5
1
330
0
100
AcDbSymbolTable
 70
     7
  0
BLOCK_RECORD
  5
1F
330
1
100
AcDbSymbolTableRecord
100
AcDbBlockTableRecord
  2
*Model_Space
340
22
  0
BLOCK_RECORD
  5
1B
330
1
100
AcDbSymbolTableRecord
100
AcDbBlockTableRecord
  2
*Paper_Space
340
1E
  0
BLOCK_RECORD
  5
23
330
1
100
AcDbSymbolTableRecord
100
AcDbBlockTableRecord
  2
*Paper_Space0
340
26
  0
BLOCK_RECORD
  5
1AB
330
1
100
AcDbSymbolTableRecord
100
AcDbBlockTableRecord
  2
*Paper_Space1
340
1AC
  0
BLOCK_RECORD
  5
209
330
1
100
AcDbSymbolTableRecord
100
AcDbBlockTableRecord
  2
*Paper_Space2
340
20A
  0
BLOCK_RECORD
  5
269
330
1
100
AcDbSymbolTableRecord
100
AcDbBlockTableRecord
  2
*Paper_Space3
340
26A
  0
BLOCK_RECORD
  5
2C5
330
1
100
AcDbSymbolTableRecord
100
AcDbBlockTableRecord
  2
*Paper_Space4
340
2C6
  0
BLOCK_RECORD
  5
322
330
1
100
AcDbSymbolTableRecord
100
AcDbBlockTableRecord
  2
*Paper_Space5
340
323
  0
BLOCK_RECORD
  5
378
330
1
100
AcDbSymbolTableRecord
100
AcDbBlockTableRecord
  2
*Paper_Space6
340
379
  0
ENDTAB
  0
ENDSEC
  0
SECTION
  2
BLOCKS
  0
BLOCK
  5
20
330
1F
100
AcDbEntity
  8
0
100
AcDbBlockBegin
  2
*Model_Space
 70
     0
 10
0.0
 20
0.0
 30
0.0
  3
*Model_Space
  1

  0
ENDBLK
  5
21
330
1F
100
AcDbEntity
  8
0
100
AcDbBlockEnd
  0
BLOCK
  5
1C
330
1B
100
AcDbEntity
 67
     1
  8
0
100
AcDbBlockBegin
  2
*Paper_Space
 70
     0
 10
0.0
 20
0.0
 30
0.0
  3
*Paper_Space
  1

  0
ENDBLK
  5
1D
330
1B
100
AcDbEntity
 67
     1
  8
0
100
AcDbBlockEnd
  0
BLOCK
  5
24
330
23
100
AcDbEntity
  8
0
100
AcDbBlockBegin
  2
*Paper_Space0
 70
     0
 10
0.0
 20
0.0
 30
0.0
  3
*Paper_Space0
  1

  0
LINE
  5
19F
330
23
100
AcDbEntity
  8
0
  6
Continuous
 62
     7
370
    25
100
AcDbLine
 10
-20.0
 20
-19.8
 30
0.0
 11
20.0
 21
-19.8
 31
0.0
  0
LINE
  5
1A0
330
23
100
AcDbEntity
  8
0
  6
Continuous
 62
     7
370
    25
100
AcDbLine
 10
-19.8
 20
20.0
 30
0.0
 11
-19.8
 21
-20.0
 31
0.0
  0
LINE
  5
1A1
330
23
100
AcDbEntity
  8
0
  6
Continuous
 62
     7
370
    25
100
AcDbLine
 10
20.0
 20
19.8
 30
0.0
 11
-20.0
 21
19.8
 31
0.0
  0
LINE
  5
1A2
330
23
100
AcDbEntity
  8
0
  6
Continuous
 62
     7
370
    25
100
AcDbLine
 10
19.8
 20
-20.0
 30
0.0
 11
19.8
 21
20.0
 31
0.0
  0
LINE
  5
1A3
330
23
100
AcDbEntity
  8
0
  6
Continuous
 62
     7
370
    25
100
AcDbLine
 10
-20.0
 20
-19.8
 30
0.0
 11
-20.0
 21
19.8
 31
0.0
  0
LINE
  5
1A4
330
23
100
AcDbEntity
  8
0
  6
Continuous
 62
     7
370
    25
100
AcDbLine
 10
20.0
 20
19.8
 30
0.0
 11
20.0
 21
-19.8
 31
0.0
  0
LINE
  5
1A5
330
23
100
AcDbEntity
  8
0
  6
Continuous
 62
     7
370
    25
100
AcDbLine
 10
19.8
 20
-20.0
 30
0.0
 11
-19.8
 21
-20.0
 31
0.0
  0
LINE
  5
1A6
330
23
100
AcDbEntity
  8
0
  6
Continuous
 62
     7
370
    25
100
AcDbLine
 10
-19.8
 20
20.0
 30
0.0
 11
19.8
 21
20.0
 31
0.0
  0
ARC
  5
1A7
330
23
100
AcDbEntity
  8
0
  6
Continuous
 62
     7
370
    25
100
AcDbCircle
 10
-19.8
 20
-19.8
 30
0.0
 40
0.2000000000000028
100
AcDbArc
 50
180.0
 51
270.0
  0
ARC
  5
1A8
330
23
100
AcDbEntity
  8
0
  6
Continuous
 62
     7
370
    25
100
AcDbCircle
 10
-19.8
 20
19.8
 30
0.0
 40
0.2000000000000028
100
AcDbArc
 50
90.0
 51
180.0
  0
ARC
  5
1A9
330
23
100
AcDbEntity
  8
0
  6
Continuous
 62
     7
370
    25
100
AcDbCircle
 10
19.8
 20
19.8
 30
0.0
 40
0.2000000000000028
100
AcDbArc
 50
0.0
 51
90.0
  0
ARC
  5
1AA
330
23
100
AcDbEntity
  8
0
  6
Continuous
 62
     7
370
    25
100
AcDbCircle
 10
19.8
 20
-19.8
 30
0.0
 40
0.2000000000000028
100
AcDbArc
 50
270.0
 51
0.0
  0
VIEWPORT
  5
3CA
330
23
100
AcDbEntity
  8
0
100
AcDbViewport
 10
0.0
 20
0.0
 30
0.0
 40
205.6
 41
156.0
 68
     1
 69
     1
 12
0.0
 22
0.0
 13
0.0
 23
0.0
 14
10.0
 24
10.0
 15
10.0
 25
10.0
 16
0.0
 26
0.0
 36
1.0
 17
0.0
 27
0.0
 37
0.0
 42
50.0
 43
0.0
 44
0.0
 45
40.8
 50
0.0
 51
0.0
 72
   100
 90
   557152
  1

281
     0
 71
     1
 74
     0
110
0.0
120
0.0
130
0.0
111
1.0
121
0.0
131
0.0
112
0.0
122
1.0
132
0.0
 79
     0
146
0.0
  0
ENDBLK
  5
25
330
23
100
AcDbEntity
  8
0
100
AcDbBlockEnd
  0
BLOCK
  5
1AD
330
1AB
100
AcDbEntity
  8
0
100
AcDbBlockBegin
  2
*Paper_Space1
 70
     0
 10
0.0
 20
0.0
 30
0.0
  3
*Paper_Space1
  1

  0
LINE
  5
1E3
330
1AB
100
AcDbEntity
  8
0
  6
Continuous
 62
     7
370
    25
100
AcDbLine
 10
17.2
 20
4.0997474683
 30
0.0
 11
18.2
 21
4.0997474683
 31
0.0
  0
LINE
  5
1E4
330
1AB
100
AcDbEntity
  8
0
  6
Continuous
 62
     7
370
    25
100
AcDbLine
 10
18.2
 20
5.7997474683
 30
0.0
 11
17.2
 21
5.7997474683
 31
0.0
  0
LINE
  5
1E5
330
1AB
100
AcDbEntity
  8
0
  6
Continuous
 62
     7
370
    25
100
AcDbLine
 10
17.2
 20
-5.7997474683
 30
0.0
 11
18.2
 21
-5.7997474683
 31
0.0
  0
LINE
  5
1E6
330
1AB
100
AcDbEntity
  8
0
  6
Continuous
 62
     7
370
    25
100
AcDbLine
 10
18.2
 20
-4.0997474683
 30
0.0
 11
17.2
 21
-4.0997474683
 31
0.0
  0
LINE
  5
1E7
330
1AB
100
AcDbEntity
  8
0
  6
Continuous
 62
     7
370
    25
100
AcDbLine
 10
0.0
 20
-19.8
 30
0.0
 11
4.0
 21
-19.8
 31
0.0
  0
LINE
  5
1E8
330
1AB
100
AcDbEntity
  8
0
  6
Continuous
 62
     7
370
    25
100
AcDbLine
 10
3.8
 20
-20.0
 30
0.0
 11
0.2
 21
-20.0
 31
0.0
  0
LINE
  5
1E9
330
1AB
100
AcDbEntity
  8
0
  6
Continuous
 62
     7
370
    25
100
AcDbLine
 10
0.2
 20
20.0
 30
0.0
 11
0.2
 21
-20.0
 31
0.0
  0
LINE
  5
1EA
330
1AB
100
AcDbEntity
  8
0
  6
Continuous
 62
     7
370
    25
100
AcDbLine
 10
4.0
 20
19.8
 30
0.0
 11
0.0
 21
19.8
 31
0.0
  0
LINE
  5
1EB
330
1AB
100
AcDbEntity
  8
0
  6
Continuous
 62
     7
370
    25
100
AcDbLine
 10
3.8
 20
-20.0
 30
0.0
 11
3.8
 21
20.0
 31
0.0
  0
LINE
  5
1EC
330
1AB
100
AcDbEntity
  8
0
  6
Continuous
 62
     7
370
    25
100
AcDbLine
 10
4.0
 20
19.8
 30
0.0
 11
4.0
 21
-19.8
 31
0.0
  0
LINE
  5
1ED
330
1AB
100
AcDbEntity
  8
0
  6
Continuous
 62
     7
370
    25
100
AcDbLine
 10
0.2
 20
20.0
 30
0.0
 11
3.8
 21
20.0
 31
0.0
  0
LINE
  5
1EE
330
1AB
100
AcDbEntity
  8
0
  6
Continuous
 62
     7
370
    25
100
AcDbLine
 10
0.0
 20
-19.8
 30
0.0
 11
0.0
 21
19.8
 31
0.0
  0
LINE
  5
1EF
330
1AB
100
AcDbEntity
  8
0
  6
Continuous
 62
     7
370
    25
100
AcDbLine
 10
16.8
 20
-6.5
 30
0.0
 11
4.0
 21
-6.5
 31
0.0
  0
LINE
  5
1F0
330
1AB
100
AcDbEntity
  8
0
  6
Continuous
 62
     7
370
    25
100
AcDbLine
 10
16.8
 20
-6.5
 30
0.0
 11
16.8
 21
6.5
 31
0.0
  0
LINE
  5
1F1
330
1AB
100
AcDbEntity
  8
0
  6
Continuous
 62
     7
370
    25
100
AcDbLine
 10
17.0
 20
6.3
 30
0.0
 11
17.0
 21
-6.3
 31
0.0
  0
LINE
  5
1F2
330
1AB
100
AcDbEntity
  8
0
  6
Continuous
 62
     7
370
    25
100
AcDbLine
 10
4.0
 20
-6.3
 30
0.0
 11
17.0
 21
-6.3
 31
0.0
  0
LINE
  5
1F3
330
1AB
100
AcDbEntity
  8
0
  6
Continuous
 62
     7
370
    25
100
AcDbLine
 10
17.0
 20
6.3
 30
0.0
 11
4.0
 21
6.3
 31
0.0
  0
LINE
  5
1F4
330
1AB
100
AcDbEntity
  8
0
  6
Continuous
 62
     7
370
    25
100
AcDbLine
 10
4.0
 20
6.5
 30
0.0
 11
16.8
 21
6.5
 31
0.0
  0
LINE
  5
1F5
330
1AB
100
AcDbEntity
  8
0
  6
Continuous
 62
     7
370
    25
100
AcDbLine
 10
18.7
 20
5.2997474683
 30
0.0
 11
18.7
 21
4.5997474683
 31
0.0
  0
LINE
  5
1F6
330
1AB
100
AcDbEntity
  8
0
  6
Continuous
 62
     7
370
    25
100
AcDbLine
 10
18.7
 20
-4.5997474683
 30
0.0
 11
18.7
 21
-5.2997474683
 31
0.0
  0
LINE
  5
1F7
330
1AB
100
AcDbEntity
  8
0
  6
Continuous
 62
     8
370
    25
100
AcDbLine
 10
17.2
 20
5.7997474683
 30
0.0
 11
17.2
 21
4.0997474683
 31
0.0
  0
LINE
  5
1F8
330
1AB
100
AcDbEntity
  8
0
  6
Continuous
 62
     8
370
    25
100
AcDbLine
 10
18.2
 20
4.0997474683
 30
0.0
 11
18.2
 21
5.7997474683
 31
0.0
  0
LINE
  5
1F9
330
1AB
100
AcDbEntity
  8
0
  6
Continuous
 62
     8
370
    25
100
AcDbLine
 10
17.2
 20
-4.0997474683
 30
0.0
 11
17.2
 21
-5.7997474683
 31
0.0
  0
LINE
  5
1FA
330
1AB
100
AcDbEntity
  8
0
  6
Continuous
 62
     8
370
    25
100
AcDbLine
 10
18.2
 20
-5.7997474683
 30
0.0
 11
18.2
 21
-4.0997474683
 31
0.0
  0
ARC
  5
1FB
330
1AB
100
AcDbEntity
  8
0
  6
Continuous
 62
     7
370
    25
100
AcDbCircle
 10
17.2
 20
3.8997474683
 30
0.0
 40
0.2000000000000028
100
AcDbArc
 50
90.0
 51
180.0
  0
ARC
  5
1FC
330
1AB
100
AcDbEntity
  8
0
  6
Continuous
 62
     7
370
    25
100
AcDbCircle
 10
17.2
 20
5.9997474683
 30
0.0
 40
0.1999999999999993
100
AcDbArc
 50
180.0
 51
270.0
  0
ARC
  5
1FD
330
1AB
100
AcDbEntity
  8
0
  6
Continuous
 62
     7
370
    25
100
AcDbCircle
 10
18.2
 20
5.2997474683
 30
0.0
 40
0.5000000000000071
100
AcDbArc
 50
0.0
 51
90.0
  0
ARC
  5
1FE
330
1AB
100
AcDbEntity
  8
0
  6
Continuous
 62
     7
370
    25
100
AcDbCircle
 10
18.2
 20
4.5997474683
 30
0.0
 40
0.5000000000000071
100
AcDbArc
 50
270.0
 51
0.0
  0
ARC
  5
1FF
330
1AB
100
AcDbEntity
  8
0
  6
Continuous
 62
     7
370
    25
100
AcDbCircle
 10
17.2
 20
-5.9997474683
 30
0.0
 40
0.2000000000000028
100
AcDbArc
 50
90.0
 51
180.0
  0
ARC
  5
200
330
1AB
100
AcDbEntity
  8
0
  6
Continuous
 62
     7
370
    25
100
AcDbCircle
 10
17.2
 20
-3.8997474683
 30
0.0
 40
0.1999999999999997
100
AcDbArc
 50
180.0
 51
270.0
  0
ARC
  5
201
330
1AB
100
AcDbEntity
  8
0
  6
Continuous
 62
     7
370
    25
100
AcDbCircle
 10
18.2
 20
-4.5997474683
 30
0.0
 40
0.5000000000000071
100
AcDbArc
 50
0.0
 51
90.0
  0
ARC
  5
202
330
1AB
100
AcDbEntity
  8
0
  6
Continuous
 62
     7
370
    25
100
AcDbCircle
 10
18.2
 20
-5.2997474683
 30
0.0
 40
0.5000000000000071
100
AcDbArc
 50
270.0
 51
0.0
  0
ARC
  5
203
330
1AB
100
AcDbEntity
  8
0
  6
Continuous
 62
     7
370
    25
100
AcDbCircle
 10
3.8
 20
-19.8
 30
0.0
 40
0.1999999999999993
100
AcDbArc
 50
270.0
 51
0.0
  0
ARC
  5
204
330
1AB
100
AcDbEntity
  8
0
  6
Continuous
 62
     7
370
    25
100
AcDbCircle
 10
3.8
 20
19.8
 30
0.0
 40
0.2000000000000028
100
AcDbArc
 50
0.0
 51
90.0
  0
ARC
  5
205
330
1AB
100
AcDbEntity
  8
0
  6
Continuous
 62
     7
370
    25
100
AcDbCircle
 10
0.2
 20
19.8
 30
0.0
 40
0.1999999999999993
100
AcDbArc
 50
90.0
 51
180.0
  0
ARC
  5
206
330
1AB
100
AcDbEntity
  8
0
  6
Continuous
 62
     7
370
    25
100
AcDbCircle
 10
0.2
 20
-19.8
 30
0.0
 40
0.2000000000000028
100
AcDbArc
 50
180.0
 51
270.0
  0
ARC
  5
207
330
1AB
100
AcDbEntity
  8
0
  6
Continuous
 62
     7
370
    25
100
AcDbCircle
 10
16.8
 20
-6.3
 30
0.0
 40
0.199999999999994
100
AcDbArc
 50
270.0
 51
0.0
  0
ARC
  5
208
330
1AB
100
AcDbEntity
  8
0
  6
Continuous
 62
     7
370
    25
100
AcDbCircle
 10
16.8
 20
6.3
 30
0.0
 40
0.2000000000000002
100
AcDbArc
 50
0.0
 51
90.0
  0
VIEWPORT
  5
3CC
330
1AB
100
AcDbEntity
  8
0
100
AcDbViewport
 10
0.0
 20
0.0
 30
0.0
 40
205.6
 41
156.0
 68
     1
 69
     1
 12
0.0
 22
0.0
 13
0.0
 23
0.0
 14
10.0
 24
10.0
 15
10.0
 25
10.0
 16
0.0
 26
0.0
 36
1.0
 17
0.0
 27
0.0
 37
0.0
 42
50.0
 43
0.0
 44
0.0
 45
40.8
 50
0.0
 51
0.0
 72
   100
 90
   557152
  1

281
     0
 71
     1
 74
     0
110
0.0
120
0.0
130
0.0
111
1.0
121
0.0
131
0.0
112
0.0
122
1.0
132
0.0
 79
     0
146
0.0
  0
ENDBLK
  5
1AE
330
1AB
100
AcDbEntity
  8
0
100
AcDbBlockEnd
  0
BLOCK
  5
20B
330
209
100
AcDbEntity
  8
0
100
AcDbBlockBegin
  2
*Paper_Space2
 70
     0
 10
0.0
 20
0.0
 30
0.0
  3
*Paper_Space2
  1

  0
LINE
  5
243
330
209
100
AcDbEntity
  8
0
  6
Continuous
 62
     7
370
    25
100
AcDbLine
 10
-17.2
 20
-4.0997474683
 30
0.0
 11
-18.2
 21
-4.0997474683
 31
0.0
  0
LINE
  5
244
330
209
100
AcDbEntity
  8
0
  6
Continuous
 62
     7
370
    25
100
AcDbLine
 10
-18.2
 20
-5.7997474683
 30
0.0
 11
-17.2
 21
-5.7997474683
 31
0.0
  0
LINE
  5
245
330
209
100
AcDbEntity
  8
0
  6
Continuous
 62
     7
370
    25
100
AcDbLine
 10
-17.2
 20
5.7997474683
 30
0.0
 11
-18.2
 21
5.7997474683
 31
0.0
  0
LINE
  5
246
330
209
100
AcDbEntity
  8
0
  6
Continuous
 62
     7
370
    25
100
AcDbLine
 10
-18.2
 20
4.0997474683
 30
0.0
 11
-17.2
 21
4.0997474683
 31
0.0
  0
LINE
  5
247
330
209
100
AcDbEntity
  8
0
  6
Continuous
 62
     7
370
    25
100
AcDbLine
 10
-4.0
 20
-19.8
 30
0.0
 11
0.0
 21
-19.8
 31
0.0
  0
LINE
  5
248
330
209
100
AcDbEntity
  8
0
  6
Continuous
 62
     7
370
    25
100
AcDbLine
 10
-0.2
 20
-20.0
 30
0.0
 11
-0.2
 21
20.0
 31
0.0
  0
LINE
  5
249
330
209
100
AcDbEntity
  8
0
  6
Continuous
 62
     7
370
    25
100
AcDbLine
 10
-0.2
 20
-20.0
 30
0.0
 11
-3.8
 21
-20.0
 31
0.0
  0
LINE
  5
24A
330
209
100
AcDbEntity
  8
0
  6
Continuous
 62
     7
370
    25
100
AcDbLine
 10
-3.8
 20
20.0
 30
0.0
 11
-3.8
 21
-20.0
 31
0.0
  0
LINE
  5
24B
330
209
100
AcDbEntity
  8
0
  6
Continuous
 62
     7
370
    25
100
AcDbLine
 10
0.0
 20
19.8
 30
0.0
 11
-4.0
 21
19.8
 31
0.0
  0
LINE
  5
24C
330
209
100
AcDbEntity
  8
0
  6
Continuous
 62
     7
370
    25
100
AcDbLine
 10
-4.0
 20
-19.8
 30
0.0
 11
-4.0
 21
19.8
 31
0.0
  0
LINE
  5
24D
330
209
100
AcDbEntity
  8
0
  6
Continuous
 62
     7
370
    25
100
AcDbLine
 10
-3.8
 20
20.0
 30
0.0
 11
-0.2
 21
20.0
 31
0.0
  0
LINE
  5
24E
330
209
100
AcDbEntity
  8
0
  6
Continuous
 62
     7
370
    25
100
AcDbLine
 10
0.0
 20
19.8
 30
0.0
 11
0.0
 21
-19.8
 31
0.0
  0
LINE
  5
24F
330
209
100
AcDbEntity
  8
0
  6
Continuous
 62
     7
370
    25
100
AcDbLine
 10
-4.0
 20
-6.5
 30
0.0
 11
-16.8
 21
-6.5
 31
0.0
  0
LINE
  5
250
330
209
100
AcDbEntity
  8
0
  6
Continuous
 62
     7
370
    25
100
AcDbLine
 10
-16.8
 20
6.5
 30
0.0
 11
-16.8
 21
-6.5
 31
0.0
  0
LINE
  5
251
330
209
100
AcDbEntity
  8
0
  6
Continuous
 62
     7
370
    25
100
AcDbLine
 10
-17.0
 20
-6.3
 30
0.0
 11
-4.0
 21
-6.3
 31
0.0
  0
LINE
  5
252
330
209
100
AcDbEntity
  8
0
  6
Continuous
 62
     7
370
    25
100
AcDbLine
 10
-17.0
 20
-6.3
 30
0.0
 11
-17.0
 21
6.3
 31
0.0
  0
LINE
  5
253
330
209
100
AcDbEntity
  8
0
  6
Continuous
 62
     7
370
    25
100
AcDbLine
 10
-4.0
 20
6.3
 30
0.0
 11
-17.0
 21
6.3
 31
0.0
  0
LINE
  5
254
330
209
100
AcDbEntity
  8
0
  6
Continuous
 62
     7
370
    25
100
AcDbLine
 10
-16.8
 20
6.5
 30
0.0
 11
-4.0
 21
6.5
 31
0.0
  0
LINE
  5
255
330
209
100
AcDbEntity
  8
0
  6
Continuous
 62
     7
370
    25
100
AcDbLine
 10
-18.7
 20
-5.2997474683
 30
0.0
 11
-18.7
 21
-4.5997474683
 31
0.0
  0
LINE
  5
256
330
209
100
AcDbEntity
  8
0
  6
Continuous
 62
     7
370
    25
100
AcDbLine
 10
-18.7
 20
4.5997474683
 30
0.0
 11
-18.7
 21
5.2997474683
 31
0.0
  0
LINE
  5
257
330
209
100
AcDbEntity
  8
0
  6
Continuous
 62
     8
370
    25
100
AcDbLine
 10
-17.2
 20
-5.7997474683
 30
0.0
 11
-17.2
 21
-4.0997474683
 31
0.0
  0
LINE
  5
258
330
209
100
AcDbEntity
  8
0
  6
Continuous
 62
     8
370
    25
100
AcDbLine
 10
-18.2
 20
-4.0997474683
 30
0.0
 11
-18.2
 21
-5.7997474683
 31
0.0
  0
LINE
  5
259
330
209
100
AcDbEntity
  8
0
  6
Continuous
 62
     8
370
    25
100
AcDbLine
 10
-17.2
 20
4.0997474683
 30
0.0
 11
-17.2
 21
5.7997474683
 31
0.0
  0
LINE
  5
25A
330
209
100
AcDbEntity
  8
0
  6
Continuous
 62
     8
370
    25
100
AcDbLine
 10
-18.2
 20
5.7997474683
 30
0.0
 11
-18.2
 21
4.0997474683
 31
0.0
  0
ARC
  5
25B
330
209
100
AcDbEntity
  8
0
  6
Continuous
 62
     7
370
    25
100
AcDbCircle
 10
-17.2
 20
-3.8997474683
 30
0.0
 40
0.2000000000000028
100
AcDbArc
 50
270.0
 51
0.0
  0
ARC
  5
25C
330
209
100
AcDbEntity
  8
0
  6
Continuous
 62
     7
370
    25
100
AcDbCircle
 10
-17.2
 20
-5.9997474683
 30
0.0
 40
0.1999999999999993
100
AcDbArc
 50
0.0
 51
90.0
  0
ARC
  5
25D
330
209
100
AcDbEntity
  8
0
  6
Continuous
 62
     7
370
    25
100
AcDbCircle
 10
-18.2
 20
-5.2997474683
 30
0.0
 40
0.5000000000000071
100
AcDbArc
 50
180.0
 51
270.0
  0
ARC
  5
25E
330
209
100
AcDbEntity
  8
0
  6
Continuous
 62
     7
370
    25
100
AcDbCircle
 10
-18.2
 20
-4.5997474683
 30
0.0
 40
0.5000000000000071
100
AcDbArc
 50
90.0
 51
180.0
  0
ARC
  5
25F
330
209
100
AcDbEntity
  8
0
  6
Continuous
 62
     7
370
    25
100
AcDbCircle
 10
-17.2
 20
5.9997474683
 30
0.0
 40
0.2000000000000028
100
AcDbArc
 50
270.0
 51
0.0
  0
ARC
  5
260
330
209
100
AcDbEntity
  8
0
  6
Continuous
 62
     7
370
    25
100
AcDbCircle
 10
-17.2
 20
3.8997474683
 30
0.0
 40
0.1999999999999997
100
AcDbArc
 50
0.0
 51
90.0
  0
ARC
  5
261
330
209
100
AcDbEntity
  8
0
  6
Continuous
 62
     7
370
    25
100
AcDbCircle
 10
-18.2
 20
4.5997474683
 30
0.0
 40
0.5000000000000071
100
AcDbArc
 50
180.0
 51
270.0
  0
ARC
  5
262
330
209
100
AcDbEntity
  8
0
  6
Continuous
 62
     7
370
    25
100
AcDbCircle
 10
-18.2
 20
5.2997474683
 30
0.0
 40
0.5000000000000071
100
AcDbArc
 50
90.0
 51
180.0
  0
ARC
  5
263
330
209
100
AcDbEntity
  8
0
  6
Continuous
 62
     7
370
    25
100
AcDbCircle
 10
-3.8
 20
19.8
 30
0.0
 40
0.2000000000000028
100
AcDbArc
 50
90.0
 51
180.0
  0
ARC
  5
264
330
209
100
AcDbEntity
  8
0
  6
Continuous
 62
     7
370
    25
100
AcDbCircle
 10
-3.8
 20
-19.8
 30
0.0
 40
0.1999999999999993
100
AcDbArc
 50
180.0
 51
270.0
  0
ARC
  5
265
330
209
100
AcDbEntity
  8
0
  6
Continuous
 62
     7
370
    25
100
AcDbCircle
 10
-0.2
 20
19.8
 30
0.0
 40
0.1999999999999993
100
AcDbArc
 50
0.0
 51
90.0
  0
ARC
  5
266
330
209
100
AcDbEntity
  8
0
  6
Continuous
 62
     7
370
    25
100
AcDbCircle
 10
-0.2
 20
-19.8
 30
0.0
 40
0.2000000000000028
100
AcDbArc
 50
270.0
 51
0.0
  0
ARC
  5
267
330
209
100
AcDbEntity
  8
0
  6
Continuous
 62
     7
370
    25
100
AcDbCircle
 10
-16.8
 20
-6.3
 30
0.0
 40
0.2000000000000002
100
AcDbArc
 50
180.0
 51
270.0
  0
ARC
  5
268
330
209
100
AcDbEntity
  8
0
  6
Continuous
 62
     7
370
    25
100
AcDbCircle
 10
-16.8
 20
6.3
 30
0.0
 40
0.199999999999994
100
AcDbArc
 50
90.0
 51
180.0
  0
VIEWPORT
  5
3CE
330
209
100
AcDbEntity
  8
0
100
AcDbViewport
 10
0.0
 20
0.0
 30
0.0
 40
205.6
 41
156.0
 68
     1
 69
     1
 12
0.0
 22
0.0
 13
0.0
 23
0.0
 14
10.0
 24
10.0
 15
10.0
 25
10.0
 16
0.0
 26
0.0
 36
1.0
 17
0.0
 27
0.0
 37
0.0
 42
50.0
 43
0.0
 44
0.0
 45
40.8
 50
0.0
 51
0.0
 72
   100
 90
   557152
  1

281
     0
 71
     1
 74
     0
110
0.0
120
0.0
130
0.0
111
1.0
121
0.0
131
0.0
112
0.0
122
1.0
132
0.0
 79
     0
146
0.0
  0
ENDBLK
  5
20C
330
209
100
AcDbEntity
  8
0
100
AcDbBlockEnd
  0
BLOCK
  5
26B
330
269
100
AcDbEntity
  8
0
100
AcDbBlockBegin
  2
*Paper_Space3
 70
     0
 10
0.0
 20
0.0
 30
0.0
  3
*Paper_Space3
  1

  0
LINE
  5
29F
330
269
100
AcDbEntity
  8
0
  6
Continuous
 62
     7
370
    25
100
AcDbLine
 10
5.7997474683
 20
17.2
 30
0.0
 11
5.7997474683
 21
18.2
 31
0.0
  0
LINE
  5
2A0
330
269
100
AcDbEntity
  8
0
  6
Continuous
 62
     7
370
    25
100
AcDbLine
 10
4.0997474683
 20
18.2
 30
0.0
 11
4.0997474683
 21
17.2
 31
0.0
  0
LINE
  5
2A1
330
269
100
AcDbEntity
  8
0
  6
Continuous
 62
     7
370
    25
100
AcDbLine
 10
-4.0997474683
 20
17.2
 30
0.0
 11
-4.0997474683
 21
18.2
 31
0.0
  0
LINE
  5
2A2
330
269
100
AcDbEntity
  8
0
  6
Continuous
 62
     7
370
    25
100
AcDbLine
 10
-5.7997474683
 20
18.2
 30
0.0
 11
-5.7997474683
 21
17.2
 31
0.0
  0
LINE
  5
2A3
330
269
100
AcDbEntity
  8
0
  6
Continuous
 62
     7
370
    25
100
AcDbLine
 10
20.0
 20
3.8
 30
0.0
 11
20.0
 21
0.2
 31
0.0
  0
LINE
  5
2A4
330
269
100
AcDbEntity
  8
0
  6
Continuous
 62
     7
370
    25
100
AcDbLine
 10
19.8
 20
0.0
 30
0.0
 11
19.8
 21
4.0
 31
0.0
  0
LINE
  5
2A5
330
269
100
AcDbEntity
  8
0
  6
Continuous
 62
     7
370
    25
100
AcDbLine
 10
-19.8
 20
4.0
 30
0.0
 11
-19.8
 21
0.0
 31
0.0
  0
LINE
  5
2A6
330
269
100
AcDbEntity
  8
0
  6
Continuous
 62
     7
370
    25
100
AcDbLine
 10
-20.0
 20
0.2
 30
0.0
 11
20.0
 21
0.2
 31
0.0
  0
LINE
  5
2A7
330
269
100
AcDbEntity
  8
0
  6
Continuous
 62
     7
370
    25
100
AcDbLine
 10
-20.0
 20
0.2
 30
0.0
 11
-20.0
 21
3.8
 31
0.0
  0
LINE
  5
2A8
330
269
100
AcDbEntity
  8
0
  6
Continuous
 62
     7
370
    25
100
AcDbLine
 10
20.0
 20
3.8
 30
0.0
 11
-20.0
 21
3.8
 31
0.0
  0
LINE
  5
2A9
330
269
100
AcDbEntity
  8
0
  6
Continuous
 62
     7
370
    25
100
AcDbLine
 10
19.8
 20
0.0
 30
0.0
 11
-19.8
 21
0.0
 31
0.0
  0
LINE
  5
2AA
330
269
100
AcDbEntity
  8
0
  6
Continuous
 62
     7
370
    25
100
AcDbLine
 10
-19.8
 20
4.0
 30
0.0
 11
19.8
 21
4.0
 31
0.0
  0
LINE
  5
2AB
330
269
100
AcDbEntity
  8
0
  6
Continuous
 62
     7
370
    25
100
AcDbLine
 10
6.5
 20
16.8
 30
0.0
 11
-6.5
 21
16.8
 31
0.0
  0
LINE
  5
2AC
330
269
100
AcDbEntity
  8
0
  6
Continuous
 62
     7
370
    25
100
AcDbLine
 10
6.3
 20
4.0
 30
0.0
 11
6.3
 21
17.0
 31
0.0
  0
LINE
  5
2AD
330
269
100
AcDbEntity
  8
0
  6
Continuous
 62
     7
370
    25
100
AcDbLine
 10
-6.3
 20
17.0
 30
0.0
 11
-6.3
 21
4.0
 31
0.0
  0
LINE
  5
2AE
330
269
100
AcDbEntity
  8
0
  6
Continuous
 62
     7
370
    25
100
AcDbLine
 10
-6.3
 20
17.0
 30
0.0
 11
6.3
 21
17.0
 31
0.0
  0
LINE
  5
2AF
330
269
100
AcDbEntity
  8
0
  6
Continuous
 62
     7
370
    25
100
AcDbLine
 10
-6.5
 20
4.0
 30
0.0
 11
-6.5
 21
16.8
 31
0.0
  0
LINE
  5
2B0
330
269
100
AcDbEntity
  8
0
  6
Continuous
 62
     7
370
    25
100
AcDbLine
 10
6.5
 20
16.8
 30
0.0
 11
6.5
 21
4.0
 31
0.0
  0
LINE
  5
2B1
330
269
100
AcDbEntity
  8
0
  6
Continuous
 62
     7
370
    25
100
AcDbLine
 10
4.5997475105
 20
18.7
 30
0.0
 11
5.2997474683
 21
18.7
 31
0.0
  0
LINE
  5
2B2
330
269
100
AcDbEntity
  8
0
  6
Continuous
 62
     7
370
    25
100
AcDbLine
 10
-5.2997474261
 20
18.7
 30
0.0
 11
-4.5997474683
 21
18.7
 31
0.0
  0
LINE
  5
2B3
330
269
100
AcDbEntity
  8
0
  6
Continuous
 62
     8
370
    25
100
AcDbLine
 10
4.0997474683
 20
17.2
 30
0.0
 11
5.7997474683
 21
17.2
 31
0.0
  0
LINE
  5
2B4
330
269
100
AcDbEntity
  8
0
  6
Continuous
 62
     8
370
    25
100
AcDbLine
 10
5.7997474683
 20
18.2
 30
0.0
 11
4.0997474683
 21
18.2
 31
0.0
  0
LINE
  5
2B5
330
269
100
AcDbEntity
  8
0
  6
Continuous
 62
     8
370
    25
100
AcDbLine
 10
-5.7997474683
 20
17.2
 30
0.0
 11
-4.0997474683
 21
17.2
 31
0.0
  0
LINE
  5
2B6
330
269
100
AcDbEntity
  8
0
  6
Continuous
 62
     8
370
    25
100
AcDbLine
 10
-4.0997474683
 20
18.2
 30
0.0
 11
-5.7997474683
 21
18.2
 31
0.0
  0
ARC
  5
2B7
330
269
100
AcDbEntity
  8
0
  6
Continuous
 62
     7
370
    25
100
AcDbCircle
 10
5.9997474683
 20
17.2
 30
0.0
 40
0.2000000000000028
100
AcDbArc
 50
180.0
 51
270.0
  0
ARC
  5
2B8
330
269
100
AcDbEntity
  8
0
  6
Continuous
 62
     7
370
    25
100
AcDbCircle
 10
3.8997474683
 20
17.2
 30
0.0
 40
0.1999999999999997
100
AcDbArc
 50
270.0
 51
0.0
  0
ARC
  5
2B9
330
269
100
AcDbEntity
  8
0
  6
Continuous
 62
     7
370
    25
100
AcDbCircle
 10
4.5997474683
 20
18.2
 30
0.0
 40
0.5000000000000107
100
AcDbArc
 50
90.0
 51
180.0
  0
ARC
  5
2BA
330
269
100
AcDbEntity
  8
0
  6
Continuous
 62
     7
370
    25
100
AcDbCircle
 10
5.2997474683
 20
18.2
 30
0.0
 40
0.5000000000000071
100
AcDbArc
 50
0.0
 51
90.0
  0
ARC
  5
2BB
330
269
100
AcDbEntity
  8
0
  6
Continuous
 62
     7
370
    25
100
AcDbCircle
 10
-3.8997474683
 20
17.2
 30
0.0
 40
0.2000000000000028
100
AcDbArc
 50
180.0
 51
270.0
  0
ARC
  5
2BC
330
269
100
AcDbEntity
  8
0
  6
Continuous
 62
     7
370
    25
100
AcDbCircle
 10
-5.9997474683
 20
17.2
 30
0.0
 40
0.2000000000000002
100
AcDbArc
 50
270.0
 51
0.0
  0
ARC
  5
2BD
330
269
100
AcDbEntity
  8
0
  6
Continuous
 62
     7
370
    25
100
AcDbCircle
 10
-5.2997474683
 20
18.2
 30
0.0
 40
0.5000000000000071
100
AcDbArc
 50
90.0
 51
180.0
  0
ARC
  5
2BE
330
269
100
AcDbEntity
  8
0
  6
Continuous
 62
     7
370
    25
100
AcDbCircle
 10
-4.5997474683
 20
18.2
 30
0.0
 40
0.5000000000000071
100
AcDbArc
 50
0.0
 51
90.0
  0
ARC
  5
2BF
330
269
100
AcDbEntity
  8
0
  6
Continuous
 62
     7
370
    25
100
AcDbCircle
 10
-19.8
 20
3.8
 30
0.0
 40
0.1999999999999993
100
AcDbArc
 50
90.0
 51
180.0
  0
ARC
  5
2C0
330
269
100
AcDbEntity
  8
0
  6
Continuous
 62
     7
370
    25
100
AcDbCircle
 10
-19.8
 20
0.2
 30
0.0
 40
0.2000000000000028
100
AcDbArc
 50
180.0
 51
270.0
  0
ARC
  5
2C1
330
269
100
AcDbEntity
  8
0
  6
Continuous
 62
     7
370
    25
100
AcDbCircle
 10
19.8
 20
0.2
 30
0.0
 40
0.1999999999999993
100
AcDbArc
 50
270.0
 51
0.0
  0
ARC
  5
2C2
330
269
100
AcDbEntity
  8
0
  6
Continuous
 62
     7
370
    25
100
AcDbCircle
 10
19.8
 20
3.8
 30
0.0
 40
0.2000000000000028
100
AcDbArc
 50
0.0
 51
90.0
  0
ARC
  5
2C3
330
269
100
AcDbEntity
  8
0
  6
Continuous
 62
     7
370
    25
100
AcDbCircle
 10
6.3
 20
16.8
 30
0.0
 40
0.199999999999994
100
AcDbArc
 50
360.0
 51
90.0
  0
ARC
  5
2C4
330
269
100
AcDbEntity
  8
0
  6
Continuous
 62
     7
370
    25
100
AcDbCircle
 10
-6.3
 20
16.8
 30
0.0
 40
0.2000000000000002
100
AcDbArc
 50
90.0
 51
180.0
  0
VIEWPORT
  5
3D0
330
269
100
AcDbEntity
  8
0
100
AcDbViewport
 10
0.0
 20
0.0
 30
0.0
 40
205.6
 41
156.0
 68
     1
 69
     1
 12
0.0
 22
0.0
 13
0.0
 23
0.0
 14
10.0
 24
10.0
 15
10.0
 25
10.0
 16
0.0
 26
0.0
 36
1.0
 17
0.0
 27
0.0
 37
0.0
 42
50.0
 43
0.0
 44
0.0
 45
40.8
 50
0.0
 51
0.0
 72
   100
 90
   557152
  1

281
     0
 71
     1
 74
     0
110
0.0
120
0.0
130
0.0
111
1.0
121
0.0
131
0.0
112
0.0
122
1.0
132
0.0
 79
     0
146
0.0
  0
ENDBLK
  5
26C
330
269
100
AcDbEntity
  8
0
100
AcDbBlockEnd
  0
BLOCK
  5
2C7
330
2C5
100
AcDbEntity
  8
0
100
AcDbBlockBegin
  2
*Paper_Space4
 70
     0
 10
0.0
 20
0.0
 30
0.0
  3
*Paper_Space4
  1

  0
SPLINE
  5
2D4
330
2C5
100
AcDbEntity
  8
0
  6
Continuous
 62
     7
370
    25
100
AcDbSpline
210
0.0
220
0.0
230
1.0
 70
     8
 71
     3
 72
    18
 73
    14
 74
     0
 42
0.000000001
 43
0.00000001
 40
0.0
 40
0.0
 40
0.0
 40
0.0
 40
0.0598802238118048
 40
0.1525514731390483
 40
0.2676499656381511
 40
0.3670111391332952
 40
0.4773904401632064
 40
0.5876810880678796
 40
0.701536374046751
 40
0.7701646331716578
 40
0.8523168415316252
 40
0.9490803500344217
 40
1.0
 40
1.0
 40
1.0
 40
1.0
 10
16.88772003600251
 20
8.797994295343727
 30
0.0
 10
16.92132678777148
 20
8.824502721619671
 30
0.0
 10
17.00694369371171
 20
8.892035860635698
 30
0.0
 10
17.09100012233235
 20
9.073893339062232
 30
0.0
 10
17.12819799936453
 20
9.297320897453492
 30
0.0
 10
17.09609496876682
 20
9.533397723352357
 30
0.0
 10
17.0099656404254
 20
9.760658407894267
 30
0.0
 10
16.86741898717951
 20
9.972824770679903
 30
0.0
 10
16.70517240379513
 20
10.12109787952031
 30
0.0
 10
16.53385949359217
 20
10.21708282838785
 30
0.0
 10
16.36124336929206
 20
10.26747365674516
 30
0.0
 10
16.1929258473072
 20
10.28011252837204
 30
0.0
 10
16.09660255242711
 20
10.24105946279804
 30
0.0
 10
16.0633912607017
 20
10.22759436325837
 30
0.0
  0
LINE
  5
2F6
330
2C5
100
AcDbEntity
  8
0
  6
Continuous
 62
     7
370
    25
100
AcDbLine
 10
16.887720036
 20
-22.6987729699
 30
0.0
 11
16.887720036
 21
9.6362431808
 31
0.0
  0
LINE
  5
2F7
330
2C5
100
AcDbEntity
  8
0
  6
Continuous
 62
     7
370
    25
100
AcDbLine
 10
16.7877119093
 20
9.8094529532
 30
0.0
 11
-11.2137166257
 21
25.9743335673
 31
0.0
  0
LINE
  5
2F8
330
2C5
100
AcDbEntity
  8
0
  6
Continuous
 62
     7
370
    25
100
AcDbLine
 10
-13.9592847845
 20
-8.1766367296
 30
0.0
 11
14.0421437505
 21
-24.3415173437
 31
0.0
  0
LINE
  5
2F9
330
2C5
100
AcDbEntity
  8
0
  6
Continuous
 62
     7
370
    25
100
AcDbLine
 10
14.242127497
 20
-24.3415173437
 30
0.0
 11
16.7877119093
 21
-22.8719827424
 31
0.0
  0
LINE
  5
2FA
330
2C5
100
AcDbEntity
  8
0
  6
Continuous
 62
     7
370
    25
100
AcDbLine
 10
-14.0592929113
 20
24.3315891936
 30
0.0
 11
-14.0592929113
 21
-8.0034269571
 31
0.0
  0
LINE
  5
2FB
330
2C5
100
AcDbEntity
  8
0
  6
Continuous
 62
     7
370
    25
100
AcDbLine
 10
-11.4137003722
 20
25.9743335673
 30
0.0
 11
-13.9592847845
 21
24.504798966
 31
0.0
  0
LINE
  5
2FC
330
2C5
100
AcDbEntity
  8
0
  6
Continuous
 62
     7
370
    25
100
AcDbLine
 10
14.28355698
 20
8.0850677683
 30
0.0
 11
14.28355698
 21
-24.2499483824
 31
0.0
  0
LINE
  5
2FD
330
2C5
100
AcDbEntity
  8
0
  6
Continuous
 62
     7
370
    25
100
AcDbLine
 10
14.0007142675
 20
-24.2499483824
 30
0.0
 11
14.0007142675
 21
8.0850677683
 31
0.0
  0
LINE
  5
2FE
330
2C5
100
AcDbEntity
  8
0
  6
Continuous
 62
     7
370
    25
100
AcDbLine
 10
14.0007142675
 20
8.0850677683
 30
0.0
 11
-14.0007142675
 21
24.2499483824
 31
0.0
  0
LINE
  5
2FF
330
2C5
100
AcDbEntity
  8
0
  6
Continuous
 62
     7
370
    25
100
AcDbLine
 10
-13.8592929113
 20
24.4948973559
 30
0.0
 11
14.1421356237
 21
8.3300167419
 31
0.0
  0
LINE
  5
300
330
2C5
100
AcDbEntity
  8
0
  6
Continuous
 62
     7
370
    25
100
AcDbLine
 10
16.8291413922
 20
9.5546023696
 30
0.0
 11
14.28355698
 21
8.0850677683
 31
0.0
  0
LINE
  5
301
330
2C5
100
AcDbEntity
  8
0
  6
Continuous
 62
     7
370
    25
100
AcDbLine
 10
14.1421356237
 20
8.3300167419
 30
0.0
 11
16.687720036
 21
9.7995513431
 31
0.0
  0
LINE
  5
302
330
2C5
100
AcDbEntity
  8
0
  6
Continuous
 62
     7
370
    25
100
AcDbLine
 10
14.28355698
 20
-24.2499483824
 30
0.0
 11
16.8291413922
 21
-22.7804137811
 31
0.0
  0
LINE
  5
303
330
2C5
100
AcDbEntity
  8
0
  6
Continuous
 62
     7
370
    25
100
AcDbLine
 10
16.8291413922
 20
-22.7804137811
 30
0.0
 11
16.8291413922
 21
9.5546023696
 31
0.0
  0
LINE
  5
304
330
2C5
100
AcDbEntity
  8
0
  6
Continuous
 62
     7
370
    25
100
AcDbLine
 10
-14.0007142675
 20
-8.0850677683
 30
0.0
 11
14.0007142675
 21
-24.2499483824
 31
0.0
  0
LINE
  5
305
330
2C5
100
AcDbEntity
  8
0
  6
Continuous
 62
     7
370
    25
100
AcDbLine
 10
-14.0007142675
 20
24.2499483824
 30
0.0
 11
-14.0007142675
 21
-8.0850677683
 31
0.0
  0
LINE
  5
306
330
2C5
100
AcDbEntity
  8
0
  6
Continuous
 62
     7
370
    25
100
AcDbLine
 10
-11.313708499
 20
25.9644319572
 30
0.0
 11
-13.8592929113
 21
24.4948973559
 31
0.0
  0
LINE
  5
307
330
2C5
100
AcDbEntity
  8
0
  6
Continuous
 62
     7
370
    25
100
AcDbLine
 10
16.687720036
 20
9.7995513431
 30
0.0
 11
-11.313708499
 21
25.9644319572
 31
0.0
  0
ARC
  5
308
330
2C5
100
AcDbEntity
  8
0
  6
Continuous
 62
     7
370
    25
100
AcDbCircle
 10
16.687720036
 20
9.6362431808
 30
0.0
 40
0.1999999999999959
100
AcDbArc
 50
0.0
 51
60.0026882664
  0
ARC
  5
309
330
2C5
100
AcDbEntity
  8
0
  6
Continuous
 62
     7
370
    25
100
AcDbCircle
 10
14.1421356237
 20
-24.1683075712
 30
0.0
 40
0.2000000000000127
100
AcDbArc
 50
240.0026882664
 51
299.9973117337
  0
ARC
  5
30A
330
2C5
100
AcDbEntity
  8
0
  6
Continuous
 62
     7
370
    25
100
AcDbCircle
 10
-13.8592929113
 20
24.3315891936
 30
0.0
 40
0.2000000000000277
100
AcDbArc
 50
119.9973117337
 51
180.0
  0
ARC
  5
30B
330
2C5
100
AcDbEntity
  8
0
  6
Continuous
 62
     7
370
    25
100
AcDbCircle
 10
16.687720036
 20
-22.6987729699
 30
0.0
 40
0.1999999999999959
100
AcDbArc
 50
299.9973117337
 51
0.0
  0
ARC
  5
30C
330
2C5
100
AcDbEntity
  8
0
  6
Continuous
 62
     7
370
    25
100
AcDbCircle
 10
-11.313708499
 20
25.8011237948
 30
0.0
 40
0.2000000000000324
100
AcDbArc
 50
60.0026882664
 51
119.9973117336
  0
ARC
  5
30D
330
2C5
100
AcDbEntity
  8
0
  6
Continuous
 62
     7
370
    25
100
AcDbCircle
 10
-13.8592929113
 20
-8.0034269571
 30
0.0
 40
0.1999999999999963
100
AcDbArc
 50
180.0
 51
240.0026882664
  0
ARC
  5
30E
330
2C5
100
AcDbEntity
  8
0
  6
Continuous
 62
     7
370
    25
100
AcDbCircle
 10
14.3077574878
 20
8.0710955978
 30
0.0
 40
0.3073609615144149
100
AcDbArc
 50
122.60547834
 51
177.3945215143
  0
ARC
  5
30F
330
2C5
100
AcDbEntity
  8
0
  6
Continuous
 62
     7
370
    25
100
AcDbCircle
 10
13.9765137597
 20
8.0710955978
 30
0.0
 40
0.3073609615144095
100
AcDbArc
 50
2.6054784857
 51
57.39452166
  0
ARC
  5
310
330
2C5
100
AcDbEntity
  8
0
  6
Continuous
 62
     7
370
    25
100
AcDbCircle
 10
14.1421356237
 20
8.3580099853
 30
0.0
 40
0.307404381582346
100
AcDbArc
 50
242.6096722366
 51
297.3903277634
  0
ARC
  5
311
330
2C5
100
AcDbEntity
  8
0
  6
Continuous
 62
     7
370
    25
100
AcDbCircle
 10
14.1421356237
 20
-23.9770061654
 30
0.0
 40
0.3074043815823293
100
AcDbArc
 50
242.6096722366
 51
297.3903277634
  0
ARC
  5
312
330
2C5
100
AcDbEntity
  8
0
  6
Continuous
 62
     7
370
    25
100
AcDbCircle
 10
-13.6936710472
 20
24.2359762119
 30
0.0
 40
0.3073609615144256
100
AcDbArc
 50
122.60547834
 51
177.3945215143
  0
ARC
  5
313
330
2C5
100
AcDbEntity
  8
0
  6
Continuous
 62
     7
370
    25
100
AcDbCircle
 10
16.522098172
 20
9.5406301991
 30
0.0
 40
0.3073609615143866
100
AcDbArc
 50
2.6054784857
 51
57.39452166
  0
ARC
  5
314
330
2C5
100
AcDbEntity
  8
0
  6
Continuous
 62
     8
370
    25
100
AcDbCircle
 10
16.7876286235
 20
9.6462244561
 30
0.0
 40
0.100587855698769
100
AcDbArc
 50
294.3746582936
 51
354.3052007488
  0
ARC
  5
315
330
2C5
100
AcDbEntity
  8
0
  6
Continuous
 62
     8
370
    25
100
AcDbCircle
 10
16.746304047
 20
9.7177750773
 30
0.0
 40
0.1005954471803629
100
AcDbArc
 50
65.6928809539
 51
125.6175774752
  0
ARC
  5
316
330
2C5
100
AcDbEntity
  8
0
  6
Continuous
 62
     8
370
    25
100
AcDbCircle
 10
16.7876286235
 20
-22.6887916945
 30
0.0
 40
0.1005878556987545
100
AcDbArc
 50
294.3746582936
 51
354.3052007488
  0
ARC
  5
317
330
2C5
100
AcDbEntity
  8
0
  6
Continuous
 62
     8
370
    25
100
AcDbCircle
 10
-11.255124488
 20
25.8826556914
 30
0.0
 40
0.1005954471803674
100
AcDbArc
 50
65.6928809539
 51
125.6175774752
  0
ARC
  5
318
330
2C5
100
AcDbEntity
  8
0
  6
Continuous
 62
     8
370
    25
100
AcDbCircle
 10
14.098714648
 20
-24.2607657298
 30
0.0
 40
0.098595586014945
100
AcDbArc
 50
173.7011524866
 51
234.9866671201
  0
ARC
  5
319
330
2C5
100
AcDbEntity
  8
0
  6
Continuous
 62
     8
370
    25
100
AcDbCircle
 10
14.1855565995
 20
-24.2607657298
 30
0.0
 40
0.0985955860149458
100
AcDbArc
 50
305.01333288
 51
6.2988475134
  0
ARC
  5
31A
330
2C5
100
AcDbEntity
  8
0
  6
Continuous
 62
     8
370
    25
100
AcDbCircle
 10
-13.9592014988
 20
24.3415704689
 30
0.0
 40
0.1005878556987591
100
AcDbArc
 50
185.6947992512
 51
245.6253417064
  0
ARC
  5
31B
330
2C5
100
AcDbEntity
  8
0
  6
Continuous
 62
     8
370
    25
100
AcDbCircle
 10
-13.9178769222
 20
24.4131210901
 30
0.0
 40
0.1005954471803717
100
AcDbArc
 50
54.3824225248
 51
114.3071190461
  0
ARC
  5
31C
330
2C5
100
AcDbEntity
  8
0
  6
Continuous
 62
     8
370
    25
100
AcDbCircle
 10
-13.902713887
 20
-8.0958851158
 30
0.0
 40
0.0985955860039846
100
AcDbArc
 50
173.7011524828
 51
234.9866671238
  0
ARC
  5
31D
330
2C5
100
AcDbEntity
  8
0
  6
Continuous
 62
     8
370
    25
100
AcDbCircle
 10
16.734004281
 20
-22.7925265868
 30
0.0
 40
0.0959051092983927
100
AcDbArc
 50
304.0563508372
 51
7.2558295562
  0
ARC
  5
31E
330
2C5
100
AcDbEntity
  8
0
  6
Continuous
 62
     8
370
    25
100
AcDbCircle
 10
-13.9592014988
 20
-7.9934456817
 30
0.0
 40
0.100587855698744
100
AcDbArc
 50
185.6947992512
 51
245.6253417064
  0
ARC
  5
31F
330
2C5
100
AcDbEntity
  8
0
  6
Continuous
 62
     8
370
    25
100
AcDbCircle
 10
-11.37229251
 20
25.8826556914
 30
0.0
 40
0.1005954471803789
100
AcDbArc
 50
54.3824225248
 51
114.3071190461
  0
ARC
  5
320
330
2C5
100
AcDbEntity
  8
0
  6
Continuous
 62
     8
370
    25
100
AcDbCircle
 10
16.1964716689
 20
9.1512251896
 30
0.0
 40
0.7753828612619158
100
AcDbArc
 50
333.0614560438
 51
26.9385439562
  0
ARC
  5
321
330
2C5
100
AcDbEntity
  8
0
  6
Continuous
 62
     8
370
    25
100
AcDbCircle
 10
16.0227440084
 20
9.4505791022
 30
0.0
 40
0.7756987032034468
100
AcDbArc
 50
33.3467998587
 51
86.658576674
  0
VIEWPORT
  5
3D2
330
2C5
100
AcDbEntity
  8
0
100
AcDbViewport
 10
0.0
 20
0.0
 30
0.0
 40
205.6
 41
156.0
 68
     1
 69
     1
 12
0.0
 22
0.0
 13
0.0
 23
0.0
 14
10.0
 24
10.0
 15
10.0
 25
10.0
 16
0.0
 26
0.0
 36
1.0
 17
0.0
 27
0.0
 37
0.0
 42
50.0
 43
0.0
 44
0.0
 45
40.8
 50
0.0
 51
0.0
 72
   100
 90
   557152
  1

281
     0
 71
     1
 74
     0
110
0.0
120
0.0
130
0.0
111
1.0
121
0.0
131
0.0
112
0.0
122
1.0
132
0.0
 79
     0
146
0.0
  0
ENDBLK
  5
2C8
330
2C5
100
AcDbEntity
  8
0
100
AcDbBlockEnd
  0
BLOCK
  5
324
330
322
100
AcDbEntity
  8
0
100
AcDbBlockBegin
  2
*Paper_Space5
 70
     0
 10
0.0
 20
0.0
 30
0.0
  3
*Paper_Space5
  1

  0
LWPOLYLINE
  5
348
330
322
100
AcDbEntity
  8
0
  6
Continuous
 62
     8
370
    25
100
AcDbPolyline
 90
        7
 70
   128
 43
0.0
 10
-17.5114788092
 20
21.7311572686
 10
-17.5441936082
 20
21.7422863762
 10
-17.5720642275
 20
21.7564887895
 10
-17.5940196146
 20
21.7732187178
 10
-17.6092160365
 20
21.7918332393
 10
-17.6170695032
 20
21.8116170084
 10
-17.6181397314
 20
21.82225907
  0
LWPOLYLINE
  5
34A
330
322
100
AcDbEntity
  8
0
  6
Continuous
 62
     8
370
    25
100
AcDbPolyline
 90
        7
 70
   128
 43
0.0
 10
-17.5114788092
 20
-12.2126678392
 10
-17.5441936082
 20
-12.2015387316
 10
-17.5720642275
 20
-12.1873363183
 10
-17.5940196146
 20
-12.17060639
 10
-17.6092160365
 20
-12.1519918685
 10
-17.6170695032
 20
-12.1322080994
 10
-17.6181397314
 20
-12.1215660378
  0
LINE
  5
350
330
322
100
AcDbEntity
  8
0
  6
Continuous
 62
     7
370
    25
100
AcDbLine
 10
19.3373743255
 20
14.1366012328
 30
0.0
 11
-15.6855832929
 21
23.6550906623
 31
0.0
  0
LINE
  5
351
330
322
100
AcDbEntity
  8
0
  6
Continuous
 62
     7
370
    25
100
AcDbLine
 10
19.4849212871
 20
-20.0002230428
 30
0.0
 11
19.4849212871
 21
13.943602065
 31
0.0
  0
LINE
  5
352
330
322
100
AcDbEntity
  8
0
  6
Continuous
 62
     7
370
    25
100
AcDbLine
 10
-17.6181397314
 20
21.82225907
 30
0.0
 11
-17.6181397314
 21
-12.1215660378
 31
0.0
  0
LINE
  5
353
330
322
100
AcDbEntity
  8
0
  6
Continuous
 62
     7
370
    25
100
AcDbLine
 10
-15.877731963
 20
23.6052177691
 30
0.0
 11
-17.5578353632
 21
21.9653853446
 31
0.0
  0
LINE
  5
354
330
322
100
AcDbEntity
  8
0
  6
Continuous
 62
     7
370
    25
100
AcDbLine
 10
-17.4705927698
 20
-12.3145652056
 30
0.0
 11
17.5523648487
 21
-21.8330546351
 31
0.0
  0
LINE
  5
355
330
322
100
AcDbEntity
  8
0
  6
Continuous
 62
     7
370
    25
100
AcDbLine
 10
17.7445135187
 20
-21.7831817419
 30
0.0
 11
19.4246169189
 21
-20.1433493174
 31
0.0
  0
LINE
  5
356
330
322
100
AcDbEntity
  8
0
  6
Continuous
 62
     7
370
    25
100
AcDbLine
 10
17.5114788092
 20
12.2126678392
 30
0.0
 11
-17.5114788092
 21
21.7311572686
 31
0.0
  0
LINE
  5
357
330
322
100
AcDbEntity
  8
0
  6
Continuous
 62
     7
370
    25
100
AcDbLine
 10
-17.4181397314
 20
21.9936925301
 30
0.0
 11
17.604817887
 21
12.4752031007
 31
0.0
  0
LINE
  5
358
330
322
100
AcDbEntity
  8
0
  6
Continuous
 62
     7
370
    25
100
AcDbLine
 10
17.7817015113
 20
12.2556964616
 30
0.0
 11
17.7817015113
 21
-21.6881286462
 31
0.0
  0
LINE
  5
359
330
322
100
AcDbEntity
  8
0
  6
Continuous
 62
     7
370
    25
100
AcDbLine
 10
17.5114788092
 20
-21.7311572686
 30
0.0
 11
17.5114788092
 21
12.2126678392
 31
0.0
  0
LINE
  5
35A
330
322
100
AcDbEntity
  8
0
  6
Continuous
 62
     7
370
    25
100
AcDbLine
 10
19.4618049115
 20
13.8955288861
 30
0.0
 11
17.7817015113
 21
12.2556964616
 31
0.0
  0
LINE
  5
35B
330
322
100
AcDbEntity
  8
0
  6
Continuous
 62
     7
370
    25
100
AcDbLine
 10
17.604817887
 20
12.4752031007
 30
0.0
 11
19.2849212871
 21
14.1150355252
 31
0.0
  0
LINE
  5
35C
330
322
100
AcDbEntity
  8
0
  6
Continuous
 62
     7
370
    25
100
AcDbLine
 10
-17.5114788092
 20
-12.2126678392
 30
0.0
 11
17.5114788092
 21
-21.7311572686
 31
0.0
  0
LINE
  5
35D
330
322
100
AcDbEntity
  8
0
  6
Continuous
 62
     7
370
    25
100
AcDbLine
 10
-17.5114788092
 20
21.7311572686
 30
0.0
 11
-17.5114788092
 21
-12.2126678392
 31
0.0
  0
LINE
  5
35E
330
322
100
AcDbEntity
  8
0
  6
Continuous
 62
     7
370
    25
100
AcDbLine
 10
-15.7380363313
 20
23.6335249546
 30
0.0
 11
-17.4181397314
 21
21.9936925301
 31
0.0
  0
LINE
  5
35F
330
322
100
AcDbEntity
  8
0
  6
Continuous
 62
     7
370
    25
100
AcDbLine
 10
19.2849212871
 20
14.1150355252
 30
0.0
 11
-15.7380363313
 21
23.6335249546
 31
0.0
  0
LINE
  5
360
330
322
100
AcDbEntity
  8
0
  6
Continuous
 62
     7
370
    25
100
AcDbLine
 10
17.7817015113
 20
-21.6881286462
 30
0.0
 11
19.4618049115
 21
-20.0482962217
 31
0.0
  0
LINE
  5
361
330
322
100
AcDbEntity
  8
0
  6
Continuous
 62
     7
370
    25
100
AcDbLine
 10
19.4618049115
 20
-20.0482962217
 30
0.0
 11
19.4618049115
 21
13.8955288861
 31
0.0
  0
ARC
  5
362
330
322
100
AcDbEntity
  8
0
  6
Continuous
 62
     7
370
    25
100
AcDbCircle
 10
19.2849212871
 20
13.943602065
 30
0.0
 40
0.1999999999999851
100
AcDbArc
 50
360.0
 51
74.7954868413
  0
ARC
  5
363
330
322
100
AcDbEntity
  8
0
  6
Continuous
 62
     7
370
    25
100
AcDbCircle
 10
-17.4181397314
 20
21.82225907
 30
0.0
 40
0.2000000000000171
100
AcDbArc
 50
134.305033619
 51
180.0
  0
ARC
  5
364
330
322
100
AcDbEntity
  8
0
  6
Continuous
 62
     7
370
    25
100
AcDbCircle
 10
-15.7380363313
 20
23.4620914945
 30
0.0
 40
0.1999999999999798
100
AcDbArc
 50
74.7954868413
 51
134.305033619
  0
ARC
  5
365
330
322
100
AcDbEntity
  8
0
  6
Continuous
 62
     7
370
    25
100
AcDbCircle
 10
17.604817887
 20
-21.6400554673
 30
0.0
 40
0.1999999999999992
100
AcDbArc
 50
254.7954868413
 51
314.305033619
  0
ARC
  5
366
330
322
100
AcDbEntity
  8
0
  6
Continuous
 62
     7
370
    25
100
AcDbCircle
 10
19.2849212871
 20
-20.0002230428
 30
0.0
 40
0.2000000000000067
100
AcDbArc
 50
314.305033619
 51
0.0
  0
ARC
  5
367
330
322
100
AcDbEntity
  8
0
  6
Continuous
 62
     7
370
    25
100
AcDbCircle
 10
-17.4181397314
 20
-12.1215660378
 30
0.0
 40
0.2000000000000033
100
AcDbArc
 50
180.0
 51
254.7954868413
  0
ARC
  5
368
330
322
100
AcDbEntity
  8
0
  6
Continuous
 62
     7
370
    25
100
AcDbCircle
 10
17.9204698989
 20
12.2151194045
 30
0.0
 40
0.4089984371671475
100
AcDbArc
 50
140.5129436103
 51
180.3434369839
  0
ARC
  5
369
330
322
100
AcDbEntity
  8
0
  6
Continuous
 62
     7
370
    25
100
AcDbCircle
 10
17.5392270724
 20
12.2413266593
 30
0.0
 40
0.2428998657232981
100
AcDbArc
 50
3.391562315
 51
74.3338098233
  0
ARC
  5
36A
330
322
100
AcDbEntity
  8
0
  6
Continuous
 62
     7
370
    25
100
AcDbCircle
 10
17.6031574732
 20
12.5069424065
 30
0.0
 40
0.3082247530957499
100
AcDbArc
 50
252.6960345908
 51
305.398914916
  0
ARC
  5
36B
330
322
100
AcDbEntity
  8
0
  6
Continuous
 62
     7
370
    25
100
AcDbCircle
 10
-17.1024877195
 20
21.733608834
 30
0.0
 40
0.4089984371671098
100
AcDbArc
 50
140.5129436103
 51
180.3434369839
  0
ARC
  5
36C
330
322
100
AcDbEntity
  8
0
  6
Continuous
 62
     7
370
    25
100
AcDbCircle
 10
17.6031574732
 20
-21.4368827013
 30
0.0
 40
0.3082247530957621
100
AcDbArc
 50
252.6960345908
 51
305.398914916
  0
ARC
  5
36D
330
322
100
AcDbEntity
  8
0
  6
Continuous
 62
     7
370
    25
100
AcDbCircle
 10
19.2193304725
 20
13.8811590838
 30
0.0
 40
0.2428998657232998
100
AcDbArc
 50
3.391562315
 51
74.3338098233
  0
ARC
  5
36E
330
322
100
AcDbEntity
  8
0
  6
Continuous
 62
     8
370
    25
100
AcDbCircle
 10
19.4185501214
 20
13.9459227379
 30
0.0
 40
0.0664117246079249
100
AcDbArc
 50
310.6406362013
 51
357.9974645044
  0
ARC
  5
36F
330
322
100
AcDbEntity
  8
0
  6
Continuous
 62
     8
370
    25
100
AcDbCircle
 10
19.3286628569
 20
14.0832175225
 30
0.0
 40
0.0540898346881613
100
AcDbArc
 50
80.7318299956
 51
143.9675277132
  0
ARC
  5
370
330
322
100
AcDbEntity
  8
0
  6
Continuous
 62
     8
370
    25
100
AcDbCircle
 10
-15.6942947616
 20
23.6017069519
 30
0.0
 40
0.0540898346882853
100
AcDbArc
 50
80.7318299956
 51
143.9675277132
  0
ARC
  5
371
330
322
100
AcDbEntity
  8
0
  6
Continuous
 62
     8
370
    25
100
AcDbCircle
 10
19.4185501214
 20
-19.9979023699
 30
0.0
 40
0.0664117246079466
100
AcDbArc
 50
310.6406362013
 51
357.9974645044
  0
ARC
  5
372
330
322
100
AcDbEntity
  8
0
  6
Continuous
 62
     8
370
    25
100
AcDbCircle
 10
-17.4637978343
 20
21.8601629851
 30
0.0
 40
0.1411198135365574
100
AcDbArc
 50
71.12277008
 51
131.7872519911
  0
ARC
  5
373
330
322
100
AcDbEntity
  8
0
  6
Continuous
 62
     8
370
    25
100
AcDbCircle
 10
-15.7832416212
 20
23.497760783
 30
0.0
 40
0.1430923776970018
100
AcDbArc
 50
71.583829316
 51
131.326192755
  0
ARC
  5
374
330
322
100
AcDbEntity
  8
0
  6
Continuous
 62
     8
370
    25
100
AcDbCircle
 10
17.6118600511
 20
-21.7500309589
 30
0.0
 40
0.1021401484099149
100
AcDbArc
 50
169.35156043
 51
234.3744174932
  0
ARC
  5
375
330
322
100
AcDbEntity
  8
0
  6
Continuous
 62
     8
370
    25
100
AcDbCircle
 10
17.6526375254
 20
-21.69243559
 30
0.0
 40
0.1291358285867411
100
AcDbArc
 50
315.3544713609
 51
1.9112857849
  0
ARC
  5
376
330
322
100
AcDbEntity
  8
0
  6
Continuous
 62
     8
370
    25
100
AcDbCircle
 10
-17.4110975673
 20
-12.2315415295
 30
0.0
 40
0.1021401484099056
100
AcDbArc
 50
169.35156043
 51
234.3744174932
  0
ARC
  5
377
330
322
100
AcDbEntity
  8
0
  6
Continuous
 62
     8
370
    25
100
AcDbCircle
 10
19.3327409256
 20
-20.0526031655
 30
0.0
 40
0.1291358285867512
100
AcDbArc
 50
315.3544713609
 51
1.9112857849
  0
VIEWPORT
  5
3D4
330
322
100
AcDbEntity
  8
0
100
AcDbViewport
 10
0.0
 20
0.0
 30
0.0
 40
205.6
 41
156.0
 68
     1
 69
     1
 12
0.0
 22
0.0
 13
0.0
 23
0.0
 14
10.0
 24
10.0
 15
10.0
 25
10.0
 16
0.0
 26
0.0
 36
1.0
 17
0.0
 27
0.0
 37
0.0
 42
50.0
 43
0.0
 44
0.0
 45
40.8
 50
0.0
 51
0.0
 72
   100
 90
   557152
  1

281
     0
 71
     1
 74
     0
110
0.0
120
0.0
130
0.0
111
1.0
121
0.0
131
0.0
112
0.0
122
1.0
132
0.0
 79
     0
146
0.0
  0
ENDBLK
  5
325
330
322
100
AcDbEntity
  8
0
100
AcDbBlockEnd
  0
BLOCK
  5
37A
330
378
100
AcDbEntity
  8
0
100
AcDbBlockBegin
  2
*Paper_Space6
 70
     0
 10
0.0
 20
0.0
 30
0.0
  3
*Paper_Space6
  1

  0
LWPOLYLINE
  5
39A
330
378
100
AcDbEntity
  8
0
  6
Continuous
 62
     8
370
    25
100
AcDbPolyline
 90
        3
 70
   128
 43
0.0
 10
20.0647069491
 20
17.5190248193
 10
20.0619900425
 20
17.5080735076
 10
20.0517898184
 20
17.4954545933
  0
LWPOLYLINE
  5
39B
330
378
100
AcDbEntity
  8
0
  6
Continuous
 62
     8
370
    25
100
AcDbPolyline
 90
        3
 70
   128
 43
0.0
 10
19.8647069491
 20
17.7075866276
 10
19.878501918
 20
17.7161294844
 10
19.8897069491
 20
17.7174561676
  0
LWPOLYLINE
  5
39C
330
378
100
AcDbEntity
  8
0
  6
Continuous
 62
     8
370
    25
100
AcDbPolyline
 90
        3
 70
   128
 43
0.0
 10
20.0647069491
 20
-19.8162132285
 10
20.0619900425
 20
-19.8271645401
 10
20.0517898184
 20
-19.8397834545
  0
LWPOLYLINE
  5
39D
330
378
100
AcDbEntity
  8
0
  6
Continuous
 62
     8
370
    25
100
AcDbPolyline
 90
        3
 70
   128
 43
0.0
 10
-17.1777011812
 20
22.3744913813
 10
-17.1639062122
 20
22.3830342381
 10
-17.1527011812
 20
22.3843609213
  0
LWPOLYLINE
  5
39E
330
378
100
AcDbEntity
  8
0
  6
Continuous
 62
     8
370
    25
100
AcDbPolyline
 90
        8
 70
   128
 43
0.0
 10
18.5669147433
 20
-21.1371417926
 10
18.5648549382
 20
-21.1367833444
 10
18.5526299953
 20
-21.130139749
 10
18.5419147433
 20
-21.1161396328
 10
18.5331209631
 20
-21.0953210123
 10
18.526586595
 20
-21.0684839356
 10
18.522562751
 20
-21.0366597363
 10
18.5212040651
 20
-21.0010714007
  0
LWPOLYLINE
  5
3A0
330
378
100
AcDbEntity
  8
0
  6
Continuous
 62
     8
370
    25
100
AcDbPolyline
 90
        8
 70
   128
 43
0.0
 10
-18.5212040651
 20
21.0010714007
 10
-18.5563434365
 20
21.006867972
 10
-18.5874150498
 20
21.0148382809
 10
-18.6132248405
 20
21.0246760328
 10
-18.6327809526
 20
21.0360031686
 10
-18.6453318558
 20
21.0483843927
 10
-18.6503952259
 20
21.0613439017
 10
-18.650493387
 20
21.0634323571
  0
LWPOLYLINE
  5
3A2
330
378
100
AcDbEntity
  8
0
  6
Continuous
 62
     8
370
    25
100
AcDbPolyline
 90
        8
 70
   128
 43
0.0
 10
-18.475493387
 20
-16.470237039
 10
-18.477553192
 20
-16.4698785908
 10
-18.4897781349
 20
-16.4632349954
 10
-18.500493387
 20
-16.4492348791
 10
-18.5092871671
 20
-16.4284162587
 10
-18.5158215353
 20
-16.4015791819
 10
-18.5198453793
 20
-16.3697549827
 10
-18.5212040651
 20
-16.3341666471
  0
LWPOLYLINE
  5
3A3
330
378
100
AcDbEntity
  8
0
  6
Continuous
 62
     8
370
    25
100
AcDbPolyline
 90
        8
 70
   128
 43
0.0
 10
-18.5212040651
 20
-16.3341666471
 10
-18.5563434365
 20
-16.3283700758
 10
-18.5874150498
 20
-16.3203997669
 10
-18.6132248405
 20
-16.3105620149
 10
-18.6327809526
 20
-16.2992348791
 10
-18.6453318558
 20
-16.286853655
 10
-18.6503952259
 20
-16.2738941461
 10
-18.650493387
 20
-16.2718056906
  0
LINE
  5
3A6
330
378
100
AcDbEntity
  8
0
  6
Continuous
 62
     7
370
    25
100
AcDbLine
 10
20.0647069491
 20
-19.8162132285
 30
0.0
 11
20.0647069491
 21
17.5190248193
 31
0.0
  0
LINE
  5
3A7
330
378
100
AcDbEntity
  8
0
  6
Continuous
 62
     7
370
    25
100
AcDbLine
 10
19.8897069491
 20
17.7174561676
 30
0.0
 11
-17.1527011812
 21
22.3843609213
 31
0.0
  0
LINE
  5
3A8
330
378
100
AcDbEntity
  8
0
  6
Continuous
 62
     7
370
    25
100
AcDbLine
 10
-18.475493387
 20
-16.470237039
 30
0.0
 11
18.5669147433
 21
-21.1371417926
 31
0.0
  0
LINE
  5
3A9
330
378
100
AcDbEntity
  8
0
  6
Continuous
 62
     7
370
    25
100
AcDbLine
 10
-18.650493387
 20
21.0634323571
 30
0.0
 11
-18.650493387
 21
-16.2718056906
 31
0.0
  0
LINE
  5
3AA
330
378
100
AcDbEntity
  8
0
  6
Continuous
 62
     7
370
    25
100
AcDbLine
 10
18.7242023088
 20
-21.0887104443
 30
0.0
 11
19.9969945146
 21
-19.9662132285
 31
0.0
  0
LINE
  5
3AB
330
378
100
AcDbEntity
  8
0
  6
Continuous
 62
     7
370
    25
100
AcDbLine
 10
-17.3099887467
 20
22.3359295729
 30
0.0
 11
-18.5827809526
 21
21.2134323571
 31
0.0
  0
LINE
  5
3AC
330
378
100
AcDbEntity
  8
0
  6
Continuous
 62
     7
370
    25
100
AcDbLine
 10
18.7789976126
 20
16.3729573775
 30
0.0
 11
18.7789976126
 21
-20.9622806703
 31
0.0
  0
LINE
  5
3AD
330
378
100
AcDbEntity
  8
0
  6
Continuous
 62
     7
370
    25
100
AcDbLine
 10
18.5212040651
 20
-21.0010714007
 30
0.0
 11
18.5212040651
 21
16.3341666471
 31
0.0
  0
LINE
  5
3AE
330
378
100
AcDbEntity
  8
0
  6
Continuous
 62
     7
370
    25
100
AcDbLine
 10
18.5212040651
 20
16.3341666471
 30
0.0
 11
-18.5212040651
 21
21.0010714007
 31
0.0
  0
LINE
  5
3AF
330
378
100
AcDbEntity
  8
0
  6
Continuous
 62
     7
370
    25
100
AcDbLine
 10
-18.450493387
 20
21.2519941655
 30
0.0
 11
18.5919147432
 21
16.5850894118
 31
0.0
  0
LINE
  5
3B0
330
378
100
AcDbEntity
  8
0
  6
Continuous
 62
     7
370
    25
100
AcDbLine
 10
-18.5212040651
 20
-16.3341666471
 30
0.0
 11
18.5212040651
 21
-21.0010714007
 31
0.0
  0
LINE
  5
3B1
330
378
100
AcDbEntity
  8
0
  6
Continuous
 62
     7
370
    25
100
AcDbLine
 10
-18.5212040651
 20
21.0010714007
 30
0.0
 11
-18.5212040651
 21
-16.3341666471
 31
0.0
  0
LINE
  5
3B2
330
378
100
AcDbEntity
  8
0
  6
Continuous
 62
     7
370
    25
100
AcDbLine
 10
20.0517898184
 20
17.4954545933
 30
0.0
 11
18.7789976126
 21
16.3729573775
 31
0.0
  0
LINE
  5
3B3
330
378
100
AcDbEntity
  8
0
  6
Continuous
 62
     7
370
    25
100
AcDbLine
 10
18.5919147432
 20
16.5850894118
 30
0.0
 11
19.8647069491
 21
17.7075866276
 31
0.0
  0
LINE
  5
3B4
330
378
100
AcDbEntity
  8
0
  6
Continuous
 62
     7
370
    25
100
AcDbLine
 10
18.7789976126
 20
-20.9622806703
 30
0.0
 11
20.0517898184
 21
-19.8397834545
 31
0.0
  0
LINE
  5
3B5
330
378
100
AcDbEntity
  8
0
  6
Continuous
 62
     7
370
    25
100
AcDbLine
 10
20.0517898184
 20
-19.8397834545
 30
0.0
 11
20.0517898184
 21
17.4954545933
 31
0.0
  0
LINE
  5
3B6
330
378
100
AcDbEntity
  8
0
  6
Continuous
 62
     7
370
    25
100
AcDbLine
 10
-17.1777011812
 20
22.3744913813
 30
0.0
 11
-18.450493387
 21
21.2519941655
 31
0.0
  0
LINE
  5
3B7
330
378
100
AcDbEntity
  8
0
  6
Continuous
 62
     7
370
    25
100
AcDbLine
 10
19.8647069491
 20
17.7075866276
 30
0.0
 11
-17.1777011812
 21
22.3744913813
 31
0.0
  0
ARC
  5
3B8
330
378
100
AcDbEntity
  8
0
  6
Continuous
 62
     7
370
    25
100
AcDbCircle
 10
19.8647069491
 20
17.5190248193
 30
0.0
 40
0.2000000000000028
100
AcDbArc
 50
0.0
 51
82.8192442221
  0
ARC
  5
3B9
330
378
100
AcDbEntity
  8
0
  6
Continuous
 62
     7
370
    25
100
AcDbCircle
 10
18.5919147432
 20
-20.9387104443
 30
0.0
 40
0.1999999999999918
100
AcDbArc
 50
262.8192442221
 51
311.40962211
  0
ARC
  5
3BA
330
378
100
AcDbEntity
  8
0
  6
Continuous
 62
     7
370
    25
100
AcDbCircle
 10
-18.450493387
 20
21.0634323571
 30
0.0
 40
0.1999999999999673
100
AcDbArc
 50
131.40962211
 51
180.0
  0
ARC
  5
3BB
330
378
100
AcDbEntity
  8
0
  6
Continuous
 62
     7
370
    25
100
AcDbCircle
 10
19.8647069491
 20
-19.8162132285
 30
0.0
 40
0.1999999999999971
100
AcDbArc
 50
311.40962211
 51
0.0
  0
ARC
  5
3BC
330
378
100
AcDbEntity
  8
0
  6
Continuous
 62
     7
370
    25
100
AcDbCircle
 10
-17.1777011812
 20
22.1859295729
 30
0.0
 40
0.1999999999999574
100
AcDbArc
 50
82.8192442221
 51
131.40962211
  0
ARC
  5
3BD
330
378
100
AcDbEntity
  8
0
  6
Continuous
 62
     7
370
    25
100
AcDbCircle
 10
-18.450493387
 20
-16.2718056906
 30
0.0
 40
0.1999999999999993
100
AcDbArc
 50
180.0
 51
262.8192442221
  0
ARC
  5
3BE
330
378
100
AcDbEntity
  8
0
  6
Continuous
 62
     7
370
    25
100
AcDbCircle
 10
18.9141987669
 20
16.3588443406
 30
0.0
 40
0.3937687445096794
100
AcDbArc
 50
144.9309440897
 51
183.5931111895
  0
ARC
  5
3BF
330
378
100
AcDbEntity
  8
0
  6
Continuous
 62
     7
370
    25
100
AcDbCircle
 10
18.5606124853
 20
16.3689216068
 30
0.0
 40
0.2184224147915349
100
AcDbArc
 50
1.0587090425
 51
81.7605351794
  0
ARC
  5
3C0
330
378
100
AcDbEntity
  8
0
  6
Continuous
 62
     7
370
    25
100
AcDbCircle
 10
18.5948125428
 20
16.7209942782
 30
0.0
 40
0.3937687445288026
100
AcDbArc
 50
259.2261330329
 51
297.8883001309
  0
ARC
  5
3C1
330
378
100
AcDbEntity
  8
0
  6
Continuous
 62
     7
370
    25
100
AcDbCircle
 10
18.5948125428
 20
-20.6142437696
 30
0.0
 40
0.3937687445288137
100
AcDbArc
 50
259.2261330329
 51
297.8883001309
  0
ARC
  5
3C2
330
378
100
AcDbEntity
  8
0
  6
Continuous
 62
     7
370
    25
100
AcDbCircle
 10
-18.1282093634
 20
21.0257490942
 30
0.0
 40
0.3937687445096451
100
AcDbArc
 50
144.9309440897
 51
183.5931111895
  0
ARC
  5
3C3
330
378
100
AcDbEntity
  8
0
  6
Continuous
 62
     7
370
    25
100
AcDbCircle
 10
19.8334046911
 20
17.4914188226
 30
0.0
 40
0.2184224147915452
100
AcDbArc
 50
1.0587090425
 51
81.7605351794
  0
ARC
  5
3C4
330
378
100
AcDbEntity
  8
0
  6
Continuous
 62
     8
370
    25
100
AcDbCircle
 10
18.6123069142
 20
-20.9651252461
 30
0.0
 40
0.1667149679464976
100
AcDbArc
 50
312.158037431
 51
0.9776572489
  0
ARC
  5
3C5
330
378
100
AcDbEntity
  8
0
  6
Continuous
 62
     8
370
    25
100
AcDbCircle
 10
-18.4741519894
 20
21.0869664373
 30
0.0
 40
0.1667149679447665
100
AcDbArc
 50
81.8415869733
 51
130.6612067915
  0
ARC
  5
3C6
330
378
100
AcDbEntity
  8
0
  6
Continuous
 62
     8
370
    25
100
AcDbCircle
 10
19.8850991201
 20
-19.8426280303
 30
0.0
 40
0.1667149679465098
100
AcDbArc
 50
312.158037431
 51
0.9776572489
  0
ARC
  5
3C7
330
378
100
AcDbEntity
  8
0
  6
Continuous
 62
     8
370
    25
100
AcDbCircle
 10
-17.2013597835
 20
22.2094636531
 30
0.0
 40
0.1667149679447752
100
AcDbArc
 50
81.8415869733
 51
130.6612067915
  0
VIEWPORT
  5
3D6
330
378
100
AcDbEntity
  8
0
100
AcDbViewport
 10
0.0
 20
0.0
 30
0.0
 40
205.6
 41
156.0
 68
     1
 69
     1
 12
0.0
 22
0.0
 13
0.0
 23
0.0
 14
10.0
 24
10.0
 15
10.0
 25
10.0
 16
0.0
 26
0.0
 36
1.0
 17
0.0
 27
0.0
 37
0.0
 42
50.0
 43
0.0
 44
0.0
 45
40.8
 50
0.0
 51
0.0
 72
   100
 90
   557152
  1

281
     0
 71
     1
 74
     0
110
0.0
120
0.0
130
0.0
111
1.0
121
0.0
131
0.0
112
0.0
122
1.0
132
0.0
 79
     0
146
0.0
  0
ENDBLK
  5
37B
330
378
100
AcDbEntity
  8
0
100
AcDbBlockEnd
  0
ENDSEC
  0
SECTION
  2
ENTITIES
  0
CIRCLE
  5
73
330
1F
100
AcDbEntity
  8
0
  6
Continuous
 62
     7
370
    25
100
AcDbCircle
 10
4.9497474683
 20
-4.9497474683
 30
0.0
 40
0.3500000000000014
  0
CIRCLE
  5
74
330
1F
100
AcDbEntity
  8
0
  6
Continuous
 62
     7
370
    25
100
AcDbCircle
 10
4.9497474683
 20
-4.9497474683
 30
0.0
 40
0.8500000000000005
  0
CIRCLE
  5
75
330
1F
100
AcDbEntity
  8
0
  6
Continuous
 62
     7
370
    25
100
AcDbCircle
 10
-4.9497474683
 20
4.9497474683
 30
0.0
 40
0.3499999999999988
  0
CIRCLE
  5
76
330
1F
100
AcDbEntity
  8
0
  6
Continuous
 62
     7
370
    25
100
AcDbCircle
 10
-4.9497474683
 20
4.9497474683
 30
0.0
 40
0.8499999999999996
  0
CIRCLE
  5
77
330
1F
100
AcDbEntity
  8
0
  6
Continuous
 62
     7
370
    25
100
AcDbCircle
 10
4.9497474683
 20
-4.9497474683
 30
0.0
 40
1.05
  0
CIRCLE
  5
78
330
1F
100
AcDbEntity
  8
0
  6
Continuous
 62
     7
370
    25
100
AcDbCircle
 10
-4.9497474683
 20
4.9497474683
 30
0.0
 40
1.05
  0
CIRCLE
  5
8C
330
1F
100
AcDbEntity
  8
0
  6
Continuous
 62
     7
370
    25
100
AcDbCircle
 10
0.0
 20
0.0
 30
0.0
 40
1.950000000000002
  0
CIRCLE
  5
8D
330
1F
100
AcDbEntity
  8
0
  6
Continuous
 62
     7
370
    25
100
AcDbCircle
 10
0.0
 20
0.0
 30
0.0
 40
1.750000000000001
  0
LINE
  5
E7
330
1F
100
AcDbEntity
  8
0
  6
Continuous
 62
     7
370
    25
100
AcDbLine
 10
6.3
 20
-6.5
 30
0.0
 11
-6.3
 21
-6.5
 31
0.0
  0
LINE
  5
E8
330
1F
100
AcDbEntity
  8
0
  6
Continuous
 62
     7
370
    25
100
AcDbLine
 10
-6.3
 20
6.7
 30
0.0
 11
-6.3
 21
-6.7
 31
0.0
  0
LINE
  5
E9
330
1F
100
AcDbEntity
  8
0
  6
Continuous
 62
     7
370
    25
100
AcDbLine
 10
-6.7
 20
-6.3
 30
0.0
 11
6.7
 21
-6.3
 31
0.0
  0
LINE
  5
EA
330
1F
100
AcDbEntity
  8
0
  6
Continuous
 62
     7
370
    25
100
AcDbLine
 10
6.3
 20
-6.7
 30
0.0
 11
6.3
 21
6.7
 31
0.0
  0
LINE
  5
EB
330
1F
100
AcDbEntity
  8
0
  6
Continuous
 62
     7
370
    25
100
AcDbLine
 10
6.5
 20
6.3
 30
0.0
 11
6.5
 21
-6.3
 31
0.0
  0
LINE
  5
EC
330
1F
100
AcDbEntity
  8
0
  6
Continuous
 62
     7
370
    25
100
AcDbLine
 10
-6.5
 20
-6.3
 30
0.0
 11
-6.5
 21
6.3
 31
0.0
  0
LINE
  5
ED
330
1F
100
AcDbEntity
  8
0
  6
Continuous
 62
     7
370
    25
100
AcDbLine
 10
6.7
 20
6.3
 30
0.0
 11
-6.7
 21
6.3
 31
0.0
  0
LINE
  5
EE
330
1F
100
AcDbEntity
  8
0
  6
Continuous
 62
     7
370
    25
100
AcDbLine
 10
-6.3
 20
6.5
 30
0.0
 11
6.3
 21
6.5
 31
0.0
  0
LINE
  5
EF
330
1F
100
AcDbEntity
  8
0
  6
Continuous
 62
     7
370
    25
100
AcDbLine
 10
16.6154700538
 20
16.2690598923
 30
0.0
 11
16.6154700538
 21
-16.2690598923
 31
0.0
  0
LINE
  5
F0
330
1F
100
AcDbEntity
  8
0
  6
Continuous
 62
     7
370
    25
100
AcDbLine
 10
16.6154700538
 20
-16.2690598923
 30
0.0
 11
16.4422649731
 21
-16.2690598923
 31
0.0
  0
LINE
  5
F1
330
1F
100
AcDbEntity
  8
0
  6
Continuous
 62
     7
370
    25
100
AcDbLine
 10
16.4422649731
 20
-16.2690598923
 30
0.0
 11
16.4422649731
 21
16.2690598923
 31
0.0
  0
LINE
  5
F2
330
1F
100
AcDbEntity
  8
0
  6
Continuous
 62
     7
370
    25
100
AcDbLine
 10
16.6154700538
 20
16.2690598923
 30
0.0
 11
16.4422649731
 21
16.2690598923
 31
0.0
  0
LINE
  5
F3
330
1F
100
AcDbEntity
  8
0
  6
Continuous
 62
     7
370
    25
100
AcDbLine
 10
16.2690598923
 20
16.6154700538
 30
0.0
 11
16.2690598923
 21
16.4422649731
 31
0.0
  0
LINE
  5
F4
330
1F
100
AcDbEntity
  8
0
  6
Continuous
 62
     7
370
    25
100
AcDbLine
 10
-19.8
 20
20.0
 30
0.0
 11
-19.8
 21
-20.0
 31
0.0
  0
LINE
  5
F5
330
1F
100
AcDbEntity
  8
0
  6
Continuous
 62
     7
370
    25
100
AcDbLine
 10
16.2690598923
 20
16.4422649731
 30
0.0
 11
-16.2690598923
 21
16.4422649731
 31
0.0
  0
LINE
  5
F6
330
1F
100
AcDbEntity
  8
0
  6
Continuous
 62
     7
370
    25
100
AcDbLine
 10
-16.2690598923
 20
16.4422649731
 30
0.0
 11
-16.2690598923
 21
16.6154700538
 31
0.0
  0
LINE
  5
F7
330
1F
100
AcDbEntity
  8
0
  6
Continuous
 62
     7
370
    25
100
AcDbLine
 10
-16.2690598923
 20
16.6154700538
 30
0.0
 11
16.2690598923
 21
16.6154700538
 31
0.0
  0
LINE
  5
F8
330
1F
100
AcDbEntity
  8
0
  6
Continuous
 62
     7
370
    25
100
AcDbLine
 10
16.2690598923
 20
-16.4422649731
 30
0.0
 11
16.2690598923
 21
-16.6154700538
 31
0.0
  0
LINE
  5
F9
330
1F
100
AcDbEntity
  8
0
  6
Continuous
 62
     7
370
    25
100
AcDbLine
 10
-16.2690598923
 20
-16.4422649731
 30
0.0
 11
16.2690598923
 21
-16.4422649731
 31
0.0
  0
LINE
  5
FA
330
1F
100
AcDbEntity
  8
0
  6
Continuous
 62
     7
370
    25
100
AcDbLine
 10
16.2690598923
 20
-16.6154700538
 30
0.0
 11
-16.2690598923
 21
-16.6154700538
 31
0.0
  0
LINE
  5
FB
330
1F
100
AcDbEntity
  8
0
  6
Continuous
 62
     7
370
    25
100
AcDbLine
 10
-16.2690598923
 20
-16.6154700538
 30
0.0
 11
-16.2690598923
 21
-16.4422649731
 31
0.0
  0
LINE
  5
FC
330
1F
100
AcDbEntity
  8
0
  6
Continuous
 62
     7
370
    25
100
AcDbLine
 10
20.0
 20
19.8
 30
0.0
 11
-20.0
 21
19.8
 31
0.0
  0
LINE
  5
FD
330
1F
100
AcDbEntity
  8
0
  6
Continuous
 62
     7
370
    25
100
AcDbLine
 10
19.8
 20
-20.0
 30
0.0
 11
19.8
 21
20.0
 31
0.0
  0
LINE
  5
FE
330
1F
100
AcDbEntity
  8
0
  6
Continuous
 62
     7
370
    25
100
AcDbLine
 10
-16.4422649731
 20
16.2690598923
 30
0.0
 11
-16.4422649731
 21
-16.2690598923
 31
0.0
  0
LINE
  5
FF
330
1F
100
AcDbEntity
  8
0
  6
Continuous
 62
     7
370
    25
100
AcDbLine
 10
-16.4422649731
 20
-16.2690598923
 30
0.0
 11
-16.6154700538
 21
-16.2690598923
 31
0.0
  0
LINE
  5
100
330
1F
100
AcDbEntity
  8
0
  6
Continuous
 62
     7
370
    25
100
AcDbLine
 10
-16.6154700538
 20
-16.2690598923
 30
0.0
 11
-16.6154700538
 21
16.2690598923
 31
0.0
  0
LINE
  5
101
330
1F
100
AcDbEntity
  8
0
  6
Continuous
 62
     7
370
    25
100
AcDbLine
 10
-16.4422649731
 20
16.2690598923
 30
0.0
 11
-16.6154700538
 21
16.2690598923
 31
0.0
  0
LINE
  5
102
330
1F
100
AcDbEntity
  8
0
  6
Continuous
 62
     7
370
    25
100
AcDbLine
 10
-20.0
 20
-19.8
 30
0.0
 11
20.0
 21
-19.8
 31
0.0
  0
LINE
  5
103
330
1F
100
AcDbEntity
  8
0
  6
Continuous
 62
     7
370
    25
100
AcDbLine
 10
-20.0
 20
-19.8
 30
0.0
 11
-20.0
 21
19.8
 31
0.0
  0
LINE
  5
104
330
1F
100
AcDbEntity
  8
0
  6
Continuous
 62
     7
370
    25
100
AcDbLine
 10
20.0
 20
19.8
 30
0.0
 11
20.0
 21
-19.8
 31
0.0
  0
LINE
  5
105
330
1F
100
AcDbEntity
  8
0
  6
Continuous
 62
     7
370
    25
100
AcDbLine
 10
-19.8
 20
20.0
 30
0.0
 11
19.8
 21
20.0
 31
0.0
  0
LINE
  5
106
330
1F
100
AcDbEntity
  8
0
  6
Continuous
 62
     7
370
    25
100
AcDbLine
 10
19.8
 20
-20.0
 30
0.0
 11
-19.8
 21
-20.0
 31
0.0
  0
LINE
  5
107
330
1F
100
AcDbEntity
  8
0
  6
Continuous
 62
     7
370
    25
100
AcDbLine
 10
-16.4422649731
 20
-16.2690598923
 30
0.0
 11
-15.4030344885
 21
-15.2298294078
 31
0.0
  0
LINE
  5
108
330
1F
100
AcDbEntity
  8
0
  6
Continuous
 62
     7
370
    25
100
AcDbLine
 10
-15.2298294078
 20
-15.4030344885
 30
0.0
 11
-16.2690598923
 21
-16.4422649731
 31
0.0
  0
LINE
  5
109
330
1F
100
AcDbEntity
  8
0
  6
Continuous
 62
     7
370
    25
100
AcDbLine
 10
16.2690598923
 20
-16.4422649731
 30
0.0
 11
15.2298294078
 21
-15.4030344885
 31
0.0
  0
LINE
  5
10A
330
1F
100
AcDbEntity
  8
0
  6
Continuous
 62
     7
370
    25
100
AcDbLine
 10
15.4030344885
 20
-15.2298294078
 30
0.0
 11
16.4422649731
 21
-16.2690598923
 31
0.0
  0
LINE
  5
10B
330
1F
100
AcDbEntity
  8
0
  6
Continuous
 62
     7
370
    25
100
AcDbLine
 10
16.4422649731
 20
16.2690598923
 30
0.0
 11
15.4030344885
 21
15.2298294078
 31
0.0
  0
LINE
  5
10C
330
1F
100
AcDbEntity
  8
0
  6
Continuous
 62
     7
370
    25
100
AcDbLine
 10
15.2298294078
 20
15.4030344885
 30
0.0
 11
16.2690598923
 21
16.4422649731
 31
0.0
  0
LINE
  5
10D
330
1F
100
AcDbEntity
  8
0
  6
Continuous
 62
     7
370
    25
100
AcDbLine
 10
-16.2690598923
 20
16.4422649731
 30
0.0
 11
-15.2298294078
 21
15.4030344885
 31
0.0
  0
LINE
  5
10E
330
1F
100
AcDbEntity
  8
0
  6
Continuous
 62
     7
370
    25
100
AcDbLine
 10
-15.4030344885
 20
15.2298294078
 30
0.0
 11
-16.4422649731
 21
16.2690598923
 31
0.0
  0
LINE
  5
10F
330
1F
100
AcDbEntity
  8
0
  6
Continuous
 62
     7
370
    25
100
AcDbLine
 10
-15.2298294078
 20
15.4030344885
 30
0.0
 11
15.2298294078
 21
15.4030344885
 31
0.0
  0
LINE
  5
110
330
1F
100
AcDbEntity
  8
0
  6
Continuous
 62
     7
370
    25
100
AcDbLine
 10
15.2298294078
 20
-15.4030344885
 30
0.0
 11
-15.2298294078
 21
-15.4030344885
 31
0.0
  0
LINE
  5
111
330
1F
100
AcDbEntity
  8
0
  6
Continuous
 62
     7
370
    25
100
AcDbLine
 10
15.4030344885
 20
15.2298294078
 30
0.0
 11
15.4030344885
 21
-15.2298294078
 31
0.0
  0
LINE
  5
112
330
1F
100
AcDbEntity
  8
0
  6
Continuous
 62
     7
370
    25
100
AcDbLine
 10
-15.4030344885
 20
-15.2298294078
 30
0.0
 11
-15.4030344885
 21
15.2298294078
 31
0.0
  0
LINE
  5
113
330
1F
100
AcDbEntity
  8
0
  6
Continuous
 62
     7
370
    25
100
AcDbLine
 10
-6.3
 20
6.7
 30
0.0
 11
6.3
 21
6.7
 31
0.0
  0
LINE
  5
114
330
1F
100
AcDbEntity
  8
0
  6
Continuous
 62
     7
370
    25
100
AcDbLine
 10
6.3
 20
-6.7
 30
0.0
 11
-6.3
 21
-6.7
 31
0.0
  0
LINE
  5
115
330
1F
100
AcDbEntity
  8
0
  6
Continuous
 62
     7
370
    25
100
AcDbLine
 10
6.7
 20
6.3
 30
0.0
 11
6.7
 21
-6.3
 31
0.0
  0
LINE
  5
116
330
1F
100
AcDbEntity
  8
0
  6
Continuous
 62
     7
370
    25
100
AcDbLine
 10
-6.7
 20
-6.3
 30
0.0
 11
-6.7
 21
6.3
 31
0.0
  0
LINE
  5
117
330
1F
100
AcDbEntity
  8
0
  6
Continuous
 62
     7
370
    25
100
AcDbLine
 10
-15.4030344885
 20
-15.2298294078
 30
0.0
 11
15.4030344885
 21
-15.2298294078
 31
0.0
  0
LINE
  5
118
330
1F
100
AcDbEntity
  8
0
  6
Continuous
 62
     7
370
    25
100
AcDbLine
 10
15.2298294078
 20
-15.4030344885
 30
0.0
 11
15.2298294078
 21
15.4030344885
 31
0.0
  0
LINE
  5
119
330
1F
100
AcDbEntity
  8
0
  6
Continuous
 62
     7
370
    25
100
AcDbLine
 10
15.4030344885
 20
15.2298294078
 30
0.0
 11
-15.4030344885
 21
15.2298294078
 31
0.0
  0
LINE
  5
11A
330
1F
100
AcDbEntity
  8
0
  6
Continuous
 62
     7
370
    25
100
AcDbLine
 10
-15.2298294078
 20
15.4030344885
 30
0.0
 11
-15.2298294078
 21
-15.4030344885
 31
0.0
  0
ARC
  5
11B
330
1F
100
AcDbEntity
  8
0
  6
Continuous
 62
     7
370
    25
100
AcDbCircle
 10
6.3
 20
6.3
 30
0.0
 40
0.2000000000000002
100
AcDbArc
 50
0.0
 51
90.0
  0
ARC
  5
11C
330
1F
100
AcDbEntity
  8
0
  6
Continuous
 62
     7
370
    25
100
AcDbCircle
 10
6.3
 20
-6.3
 30
0.0
 40
0.200000000000002
100
AcDbArc
 50
270.0
 51
0.0
  0
ARC
  5
11D
330
1F
100
AcDbEntity
  8
0
  6
Continuous
 62
     7
370
    25
100
AcDbCircle
 10
-6.3
 20
-6.3
 30
0.0
 40
0.2000000000000028
100
AcDbArc
 50
180.0
 51
270.0
  0
ARC
  5
11E
330
1F
100
AcDbEntity
  8
0
  6
Continuous
 62
     7
370
    25
100
AcDbCircle
 10
-6.3
 20
6.3
 30
0.0
 40
0.200000000000002
100
AcDbArc
 50
90.0
 51
180.0
  0
ARC
  5
11F
330
1F
100
AcDbEntity
  8
0
  6
Continuous
 62
     7
370
    25
100
AcDbCircle
 10
19.8
 20
-19.8
 30
0.0
 40
0.2000000000000028
100
AcDbArc
 50
270.0
 51
0.0
  0
ARC
  5
120
330
1F
100
AcDbEntity
  8
0
  6
Continuous
 62
     7
370
    25
100
AcDbCircle
 10
16.3078579887
 20
16.3078579887
 30
0.0
 40
0.1398947094595293
100
AcDbArc
 50
343.8986173415
 51
106.1013826585
  0
ARC
  5
121
330
1F
100
AcDbEntity
  8
0
  6
Continuous
 62
     7
370
    25
100
AcDbCircle
 10
16.2806341975
 20
16.2806341975
 30
0.0
 40
0.3350358417311779
100
AcDbArc
 50
358.0202392308
 51
91.9797607692
  0
ARC
  5
122
330
1F
100
AcDbEntity
  8
0
  6
Continuous
 62
     7
370
    25
100
AcDbCircle
 10
-19.8
 20
19.8
 30
0.0
 40
0.2000000000000028
100
AcDbArc
 50
90.0
 51
180.0
  0
ARC
  5
123
330
1F
100
AcDbEntity
  8
0
  6
Continuous
 62
     7
370
    25
100
AcDbCircle
 10
16.3078579887
 20
-16.3078579887
 30
0.0
 40
0.1398947094595308
100
AcDbArc
 50
253.8986173415
 51
16.1013826585
  0
ARC
  5
124
330
1F
100
AcDbEntity
  8
0
  6
Continuous
 62
     7
370
    25
100
AcDbCircle
 10
16.2806341975
 20
-16.2806341975
 30
0.0
 40
0.3350358417311745
100
AcDbArc
 50
268.0202392308
 51
1.9797607692
  0
ARC
  5
125
330
1F
100
AcDbEntity
  8
0
  6
Continuous
 62
     7
370
    25
100
AcDbCircle
 10
19.8
 20
19.8
 30
0.0
 40
0.2000000000000028
100
AcDbArc
 50
0.0
 51
90.0
  0
ARC
  5
126
330
1F
100
AcDbEntity
  8
0
  6
Continuous
 62
     7
370
    25
100
AcDbCircle
 10
-16.3078579887
 20
-16.3078579887
 30
0.0
 40
0.1398947094595318
100
AcDbArc
 50
163.8986173415
 51
286.1013826585
  0
ARC
  5
127
330
1F
100
AcDbEntity
  8
0
  6
Continuous
 62
     7
370
    25
100
AcDbCircle
 10
-16.2806341975
 20
-16.2806341975
 30
0.0
 40
0.3350358417311746
100
AcDbArc
 50
178.0202392308
 51
271.9797607692
  0
ARC
  5
128
330
1F
100
AcDbEntity
  8
0
  6
Continuous
 62
     7
370
    25
100
AcDbCircle
 10
-16.3078579887
 20
16.3078579887
 30
0.0
 40
0.1398947094595303
100
AcDbArc
 50
73.8986173415
 51
196.1013826585
  0
ARC
  5
129
330
1F
100
AcDbEntity
  8
0
  6
Continuous
 62
     7
370
    25
100
AcDbCircle
 10
-16.2806341975
 20
16.2806341975
 30
0.0
 40
0.335035841731178
100
AcDbArc
 50
88.0202392308
 51
181.9797607692
  0
ARC
  5
12A
330
1F
100
AcDbEntity
  8
0
  6
Continuous
 62
     7
370
    25
100
AcDbCircle
 10
-19.8
 20
-19.8
 30
0.0
 40
0.2000000000000028
100
AcDbArc
 50
180.0
 51
270.0
  0
ARC
  5
12B
330
1F
100
AcDbEntity
  8
0
  6
Continuous
 62
     7
370
    25
100
AcDbCircle
 10
-15.1657568478
 20
-15.1657568478
 30
0.0
 40
0.2457762635213294
100
AcDbArc
 50
195.1112849107
 51
254.8887150893
  0
ARC
  5
12C
330
1F
100
AcDbEntity
  8
0
  6
Continuous
 62
     7
370
    25
100
AcDbCircle
 10
15.1657568478
 20
-15.1657568478
 30
0.0
 40
0.2457762635213296
100
AcDbArc
 50
285.1112849107
 51
344.8887150893
  0
ARC
  5
12D
330
1F
100
AcDbEntity
  8
0
  6
Continuous
 62
     7
370
    25
100
AcDbCircle
 10
15.1657568478
 20
15.1657568478
 30
0.0
 40
0.2457762635213279
100
AcDbArc
 50
15.1112849107
 51
74.8887150893
  0
ARC
  5
12E
330
1F
100
AcDbEntity
  8
0
  6
Continuous
 62
     7
370
    25
100
AcDbCircle
 10
-15.1657568478
 20
15.1657568478
 30
0.0
 40
0.2457762635213279
100
AcDbArc
 50
105.1112849107
 51
164.8887150893
  0
ARC
  5
12F
330
1F
100
AcDbEntity
  8
0
  6
Continuous
 62
     7
370
    25
100
AcDbCircle
 10
6.3
 20
-6.3
 30
0.0
 40
0.3999999999999986
100
AcDbArc
 50
270.0
 51
0.0
  0
ARC
  5
130
330
1F
100
AcDbEntity
  8
0
  6
Continuous
 62
     7
370
    25
100
AcDbCircle
 10
-6.3
 20
6.3
 30
0.0
 40
0.4000000000000004
100
AcDbArc
 50
90.0
 51
180.0
  0
ARC
  5
131
330
1F
100
AcDbEntity
  8
0
  6
Continuous
 62
     7
370
    25
100
AcDbCircle
 10
6.3
 20
6.3
 30
0.0
 40
0.3999999999999977
100
AcDbArc
 50
0.0
 51
90.0
  0
ARC
  5
132
330
1F
100
AcDbEntity
  8
0
  6
Continuous
 62
     7
370
    25
100
AcDbCircle
 10
-6.3
 20
-6.3
 30
0.0
 40
0.3999999999999995
100
AcDbArc
 50
180.0
 51
270.0
  0
LINE
  5
165
330
1B
100
AcDbEntity
 67
     1
  8
0
  6
Continuous
 62
     7
370
    25
100
AcDbLine
 10
-5.7997474683
 20
-17.2
 30
0.0
 11
-5.7997474683
 21
-18.2
 31
0.0
  0
LINE
  5
166
330
1B
100
AcDbEntity
 67
     1
  8
0
  6
Continuous
 62
     7
370
    25
100
AcDbLine
 10
-4.0997474683
 20
-18.2
 30
0.0
 11
-4.0997474683
 21
-17.2
 31
0.0
  0
LINE
  5
167
330
1B
100
AcDbEntity
 67
     1
  8
0
  6
Continuous
 62
     7
370
    25
100
AcDbLine
 10
4.0997474683
 20
-17.2
 30
0.0
 11
4.0997474683
 21
-18.2
 31
0.0
  0
LINE
  5
168
330
1B
100
AcDbEntity
 67
     1
  8
0
  6
Continuous
 62
     7
370
    25
100
AcDbLine
 10
5.7997474683
 20
-18.2
 30
0.0
 11
5.7997474683
 21
-17.2
 31
0.0
  0
LINE
  5
169
330
1B
100
AcDbEntity
 67
     1
  8
0
  6
Continuous
 62
     7
370
    25
100
AcDbLine
 10
-19.8
 20
0.0
 30
0.0
 11
-19.8
 21
-4.0
 31
0.0
  0
LINE
  5
16A
330
1B
100
AcDbEntity
 67
     1
  8
0
  6
Continuous
 62
     7
370
    25
100
AcDbLine
 10
20.0
 20
-0.2
 30
0.0
 11
-20.0
 21
-0.2
 31
0.0
  0
LINE
  5
16B
330
1B
100
AcDbEntity
 67
     1
  8
0
  6
Continuous
 62
     7
370
    25
100
AcDbLine
 10
-20.0
 20
-3.8
 30
0.0
 11
-20.0
 21
-0.2
 31
0.0
  0
LINE
  5
16C
330
1B
100
AcDbEntity
 67
     1
  8
0
  6
Continuous
 62
     7
370
    25
100
AcDbLine
 10
-20.0
 20
-3.8
 30
0.0
 11
20.0
 21
-3.8
 31
0.0
  0
LINE
  5
16D
330
1B
100
AcDbEntity
 67
     1
  8
0
  6
Continuous
 62
     7
370
    25
100
AcDbLine
 10
19.8
 20
-4.0
 30
0.0
 11
19.8
 21
0.0
 31
0.0
  0
LINE
  5
16E
330
1B
100
AcDbEntity
 67
     1
  8
0
  6
Continuous
 62
     7
370
    25
100
AcDbLine
 10
19.8
 20
-4.0
 30
0.0
 11
-19.8
 21
-4.0
 31
0.0
  0
LINE
  5
16F
330
1B
100
AcDbEntity
 67
     1
  8
0
  6
Continuous
 62
     7
370
    25
100
AcDbLine
 10
-19.8
 20
0.0
 30
0.0
 11
19.8
 21
0.0
 31
0.0
  0
LINE
  5
170
330
1B
100
AcDbEntity
 67
     1
  8
0
  6
Continuous
 62
     7
370
    25
100
AcDbLine
 10
20.0
 20
-0.2
 30
0.0
 11
20.0
 21
-3.8
 31
0.0
  0
LINE
  5
171
330
1B
100
AcDbEntity
 67
     1
  8
0
  6
Continuous
 62
     7
370
    25
100
AcDbLine
 10
-6.5
 20
-16.8
 30
0.0
 11
-6.5
 21
-4.0
 31
0.0
  0
LINE
  5
172
330
1B
100
AcDbEntity
 67
     1
  8
0
  6
Continuous
 62
     7
370
    25
100
AcDbLine
 10
6.5
 20
-4.0
 30
0.0
 11
6.5
 21
-16.8
 31
0.0
  0
LINE
  5
173
330
1B
100
AcDbEntity
 67
     1
  8
0
  6
Continuous
 62
     7
370
    25
100
AcDbLine
 10
-6.5
 20
-16.8
 30
0.0
 11
6.5
 21
-16.8
 31
0.0
  0
LINE
  5
174
330
1B
100
AcDbEntity
 67
     1
  8
0
  6
Continuous
 62
     7
370
    25
100
AcDbLine
 10
6.3
 20
-17.0
 30
0.0
 11
6.3
 21
-4.0
 31
0.0
  0
LINE
  5
175
330
1B
100
AcDbEntity
 67
     1
  8
0
  6
Continuous
 62
     7
370
    25
100
AcDbLine
 10
6.3
 20
-17.0
 30
0.0
 11
-6.3
 21
-17.0
 31
0.0
  0
LINE
  5
176
330
1B
100
AcDbEntity
 67
     1
  8
0
  6
Continuous
 62
     7
370
    25
100
AcDbLine
 10
-6.3
 20
-4.0
 30
0.0
 11
-6.3
 21
-17.0
 31
0.0
  0
LINE
  5
177
330
1B
100
AcDbEntity
 67
     1
  8
0
  6
Continuous
 62
     7
370
    25
100
AcDbLine
 10
-4.5997474683
 20
-18.7
 30
0.0
 11
-5.2997474683
 21
-18.7
 31
0.0
  0
LINE
  5
178
330
1B
100
AcDbEntity
 67
     1
  8
0
  6
Continuous
 62
     7
370
    25
100
AcDbLine
 10
5.2997474683
 20
-18.7
 30
0.0
 11
4.5997474683
 21
-18.7
 31
0.0
  0
LINE
  5
179
330
1B
100
AcDbEntity
 67
     1
  8
0
  6
Continuous
 62
     8
370
    25
100
AcDbLine
 10
-4.0997474683
 20
-17.2
 30
0.0
 11
-5.7997474683
 21
-17.2
 31
0.0
  0
LINE
  5
17A
330
1B
100
AcDbEntity
 67
     1
  8
0
  6
Continuous
 62
     8
370
    25
100
AcDbLine
 10
-5.7997474683
 20
-18.2
 30
0.0
 11
-4.0997474683
 21
-18.2
 31
0.0
  0
LINE
  5
17B
330
1B
100
AcDbEntity
 67
     1
  8
0
  6
Continuous
 62
     8
370
    25
100
AcDbLine
 10
5.7997474683
 20
-17.2
 30
0.0
 11
4.0997474683
 21
-17.2
 31
0.0
  0
LINE
  5
17C
330
1B
100
AcDbEntity
 67
     1
  8
0
  6
Continuous
 62
     8
370
    25
100
AcDbLine
 10
4.0997474683
 20
-18.2
 30
0.0
 11
5.7997474683
 21
-18.2
 31
0.0
  0
ARC
  5
17D
330
1B
100
AcDbEntity
 67
     1
  8
0
  6
Continuous
 62
     7
370
    25
100
AcDbCircle
 10
-5.9997474683
 20
-17.2
 30
0.0
 40
0.2000000000000028
100
AcDbArc
 50
0.0
 51
90.0
  0
ARC
  5
17E
330
1B
100
AcDbEntity
 67
     1
  8
0
  6
Continuous
 62
     7
370
    25
100
AcDbCircle
 10
-3.8997474683
 20
-17.2
 30
0.0
 40
0.2000000000000006
100
AcDbArc
 50
90.0
 51
180.0
  0
ARC
  5
17F
330
1B
100
AcDbEntity
 67
     1
  8
0
  6
Continuous
 62
     7
370
    25
100
AcDbCircle
 10
-4.5997474683
 20
-18.2
 30
0.0
 40
0.5000000000000071
100
AcDbArc
 50
270.0
 51
0.0
  0
ARC
  5
180
330
1B
100
AcDbEntity
 67
     1
  8
0
  6
Continuous
 62
     7
370
    25
100
AcDbCircle
 10
-5.2997474683
 20
-18.2
 30
0.0
 40
0.5000000000000071
100
AcDbArc
 50
180.0
 51
270.0
  0
ARC
  5
181
330
1B
100
AcDbEntity
 67
     1
  8
0
  6
Continuous
 62
     7
370
    25
100
AcDbCircle
 10
3.8997474683
 20
-17.2
 30
0.0
 40
0.2000000000000033
100
AcDbArc
 50
0.0
 51
90.0
  0
ARC
  5
182
330
1B
100
AcDbEntity
 67
     1
  8
0
  6
Continuous
 62
     7
370
    25
100
AcDbCircle
 10
5.9997474683
 20
-17.2
 30
0.0
 40
0.1999999999999993
100
AcDbArc
 50
90.0
 51
180.0
  0
ARC
  5
183
330
1B
100
AcDbEntity
 67
     1
  8
0
  6
Continuous
 62
     7
370
    25
100
AcDbCircle
 10
5.2997474683
 20
-18.2
 30
0.0
 40
0.5000000000000071
100
AcDbArc
 50
270.0
 51
0.0
  0
ARC
  5
184
330
1B
100
AcDbEntity
 67
     1
  8
0
  6
Continuous
 62
     7
370
    25
100
AcDbCircle
 10
4.5997474683
 20
-18.2
 30
0.0
 40
0.5000000000000107
100
AcDbArc
 50
180.0
 51
270.0
  0
ARC
  5
185
330
1B
100
AcDbEntity
 67
     1
  8
0
  6
Continuous
 62
     7
370
    25
100
AcDbCircle
 10
-19.8
 20
-0.2
 30
0.0
 40
0.2000000000000028
100
AcDbArc
 50
90.0
 51
180.0
  0
ARC
  5
186
330
1B
100
AcDbEntity
 67
     1
  8
0
  6
Continuous
 62
     7
370
    25
100
AcDbCircle
 10
-19.8
 20
-3.8
 30
0.0
 40
0.1999999999999993
100
AcDbArc
 50
180.0
 51
270.0
  0
ARC
  5
187
330
1B
100
AcDbEntity
 67
     1
  8
0
  6
Continuous
 62
     7
370
    25
100
AcDbCircle
 10
19.8
 20
-3.8
 30
0.0
 40
0.2000000000000028
100
AcDbArc
 50
270.0
 51
0.0
  0
ARC
  5
188
330
1B
100
AcDbEntity
 67
     1
  8
0
  6
Continuous
 62
     7
370
    25
100
AcDbCircle
 10
19.8
 20
-0.2
 30
0.0
 40
0.1999999999999993
100
AcDbArc
 50
0.0
 51
90.0
  0
ARC
  5
189
330
1B
100
AcDbEntity
 67
     1
  8
0
  6
Continuous
 62
     7
370
    25
100
AcDbCircle
 10
-6.3
 20
-16.8
 30
0.0
 40
0.2000000000000002
100
AcDbArc
 50
180.0
 51
270.0
  0
ARC
  5
18A
330
1B
100
AcDbEntity
 67
     1
  8
0
  6
Continuous
 62
     7
370
    25
100
AcDbCircle
 10
6.3
 20
-16.8
 30
0.0
 40
0.199999999999994
100
AcDbArc
 50
270.0
 51
0.0
  0
VIEWPORT
  5
3C8
330
1B
100
AcDbEntity
 67
     1
  8
0
100
AcDbViewport
 10
0.0
 20
0.0
 30
0.0
 40
205.6
 41
156.0
 68
     1
 69
     1
 12
0.0
 22
0.0
 13
0.0
 23
0.0
 14
10.0
 24
10.0
 15
10.0
 25
10.0
 16
0.0
 26
0.0
 36
1.0
 17
0.0
 27
0.0
 37
0.0
 42
50.0
 43
0.0
 44
0.0
 45
40.8
 50
0.0
 51
0.0
 72
   100
 90
   557152
  1

281
     0
 71
     1
 74
     0
110
0.0
120
0.0
130
0.0
111
1.0
121
0.0
131
0.0
112
0.0
122
1.0
132
0.0
 79
     0
146
0.0
  0
ENDSEC
  0
SECTION
  2
OBJECTS
  0
DICTIONARY
  5
C
330
0
100
AcDbDictionary
281
     1
  3
ACAD_GROUP
350
D
  3
ACAD_LAYOUT
350
1A
  3
ACAD_MLINESTYLE
350
17
  3
ACAD_PLOTSETTINGS
350
19
  3
ACAD_PLOTSTYLENAME
350
E
  3
ACAD_SCALELIST
350
47
  0
DICTIONARY
  5
D
102
{ACAD_REACTORS
330
C
102
}
330
C
100
AcDbDictionary
281
     1
  0
DICTIONARY
  5
1A
102
{ACAD_REACTORS
330
C
102
}
330
C
100
AcDbDictionary
281
     1
  3
_Bottom
350
26A
  3
_Dimetric
350
379
  3
_Front
350
26
  3
_Isometric
350
2C6
  3
_Left
350
20A
  3
_Right
350
1AC
  3
_Top
350
1E
  3
_Trimetric
350
323
  3
Model
350
22
  0
DICTIONARY
  5
17
102
{ACAD_REACTORS
330
C
102
}
330
C
100
AcDbDictionary
281
     1
  3
Standard
350
18
  0
DICTIONARY
  5
19
102
{ACAD_REACTORS
330
C
102
}
330
C
100
AcDbDictionary
281
     1
  0
ACDBDICTIONARYWDFLT
  5
E
102
{ACAD_REACTORS
330
C
102
}
330
C
100
AcDbDictionary
281
     1
  3
Normal
350
F
100
AcDbDictionaryWithDefault
340
F
  0
DICTIONARY
  5
47
102
{ACAD_REACTORS
330
C
102
}
330
C
100
AcDbDictionary
281
     1
  3
A0
350
48
  3
A1
350
49
  3
A2
350
4A
  3
A3
350
4B
  3
A4
350
4C
  3
A5
350
4D
  3
A6
350
4E
  3
A7
350
4F
  3
A8
350
50
  3
A9
350
51
  3
B0
350
52
  3
B1
350
53
  3
B2
350
54
  3
B3
350
55
  3
B4
350
56
  3
B5
350
57
  3
B6
350
58
  3
B7
350
59
  3
B8
350
5A
  3
B9
350
5B
  3
C0
350
5C
  3
C1
350
5D
  3
C2
350
5E
  3
C3
350
5F
  3
C4
350
60
  3
C5
350
61
  3
C6
350
62
  3
C7
350
63
  3
C8
350
64
  3
C9
350
65
  3
D0
350
66
  3
D1
350
67
  3
D2
350
68
  0
LAYOUT
  5
26A
102
{ACAD_REACTORS
330
1A
102
}
330
1A
100
AcDbPlotSettings
  1

  2
none_device
  4
ISO_A4_(210.00_x_297.00_MM)
  6

 40
7.5
 41
20.0
 42
7.5
 43
20.0
 44
210.0
 45
297.0
 46
0.0
 47
0.0
 48
0.0
 49
0.0
140
0.0
141
0.0
142
1.0
143
0.1556420233
 70
   688
 72
     1
 73
     1
 74
     1
  7

 75
     0
147
6.425
148
20.0
149
18.7
100
AcDbLayout
  1
_Bottom
 70
     1
 71
     5
 10
0.0
 20
0.0
 11
0.0
 21
0.0
 12
0.0
 22
0.0
 32
0.0
 14
0.0
 24
0.0
 34
0.0
 15
0.0
 25
0.0
 35
0.0
146
0.0
 13
0.0
 23
0.0
 33
0.0
 16
1.0
 26
0.0
 36
0.0
 17
0.0
 27
1.0
 37
0.0
 76
     0
330
269
331
3D0
  0
LAYOUT
  5
379
102
{ACAD_REACTORS
330
1A
102
}
330
1A
100
AcDbPlotSettings
  1

  2
none_device
  4
ISO_A4_(210.00_x_297.00_MM)
  6

 40
7.5
 41
20.0
 42
7.5
 43
20.0
 44
210.0
 45
297.0
 46
0.0
 47
0.0
 48
0.0
 49
0.0
140
0.0
141
0.0
142
1.0
143
0.1556420233
 70
   688
 72
     1
 73
     1
 74
     1
  7

 75
     0
147
6.425
148
20.0
149
18.7
100
AcDbLayout
  1
_Dimetric
 70
     1
 71
     8
 10
0.0
 20
0.0
 11
0.0
 21
0.0
 12
0.0
 22
0.0
 32
0.0
 14
0.0
 24
0.0
 34
0.0
 15
0.0
 25
0.0
 35
0.0
146
0.0
 13
0.0
 23
0.0
 33
0.0
 16
1.0
 26
0.0
 36
0.0
 17
0.0
 27
1.0
 37
0.0
 76
     0
330
378
331
3D6
  0
LAYOUT
  5
26
102
{ACAD_REACTORS
330
1A
102
}
330
1A
100
AcDbPlotSettings
  1

  2
none_device
  4
ISO_A4_(210.00_x_297.00_MM)
  6

 40
7.5
 41
20.0
 42
7.5
 43
20.0
 44
210.0
 45
297.0
 46
0.0
 47
0.0
 48
0.0
 49
0.0
140
0.0
141
0.0
142
1.0
143
0.1556420233
 70
   688
 72
     1
 73
     1
 74
     1
  7

 75
     0
147
6.425
148
20.0
149
18.7
100
AcDbLayout
  1
_Front
 70
     1
 71
     2
 10
0.0
 20
0.0
 11
0.0
 21
0.0
 12
0.0
 22
0.0
 32
0.0
 14
0.0
 24
0.0
 34
0.0
 15
0.0
 25
0.0
 35
0.0
146
0.0
 13
0.0
 23
0.0
 33
0.0
 16
1.0
 26
0.0
 36
0.0
 17
0.0
 27
1.0
 37
0.0
 76
     0
330
23
331
3CA
  0
LAYOUT
  5
2C6
102
{ACAD_REACTORS
330
1A
102
}
330
1A
100
AcDbPlotSettings
  1

  2
none_device
  4
ISO_A4_(210.00_x_297.00_MM)
  6

 40
7.5
 41
20.0
 42
7.5
 43
20.0
 44
210.0
 45
297.0
 46
0.0
 47
0.0
 48
0.0
 49
0.0
140
0.0
141
0.0
142
1.0
143
0.1556420233
 70
   688
 72
     1
 73
     1
 74
     1
  7

 75
     0
147
6.425
148
20.0
149
18.7
100
AcDbLayout
  1
_Isometric
 70
     1
 71
     6
 10
0.0
 20
0.0
 11
0.0
 21
0.0
 12
0.0
 22
0.0
 32
0.0
 14
0.0
 24
0.0
 34
0.0
 15
0.0
 25
0.0
 35
0.0
146
0.0
 13
0.0
 23
0.0
 33
0.0
 16
1.0
 26
0.0
 36
0.0
 17
0.0
 27
1.0
 37
0.0
 76
     0
330
2C5
331
3D2
  0
LAYOUT
  5
20A
102
{ACAD_REACTORS
330
1A
102
}
330
1A
100
AcDbPlotSettings
  1

  2
none_device
  4
ISO_A4_(210.00_x_297.00_MM)
  6

 40
7.5
 41
20.0
 42
7.5
 43
20.0
 44
210.0
 45
297.0
 46
0.0
 47
0.0
 48
0.0
 49
0.0
140
0.0
141
0.0
142
1.0
143
0.1556420233
 70
   688
 72
     1
 73
     1
 74
     1
  7

 75
     0
147
6.425
148
20.0
149
18.7
100
AcDbLayout
  1
_Left
 70
     1
 71
     4
 10
0.0
 20
0.0
 11
0.0
 21
0.0
 12
0.0
 22
0.0
 32
0.0
 14
0.0
 24
0.0
 34
0.0
 15
0.0
 25
0.0
 35
0.0
146
0.0
 13
0.0
 23
0.0
 33
0.0
 16
1.0
 26
0.0
 36
0.0
 17
0.0
 27
1.0
 37
0.0
 76
     0
330
209
331
3CE
  0
LAYOUT
  5
1AC
102
{ACAD_REACTORS
330
1A
102
}
330
1A
100
AcDbPlotSettings
  1

  2
none_device
  4
ISO_A4_(210.00_x_297.00_MM)
  6

 40
7.5
 41
20.0
 42
7.5
 43
20.0
 44
210.0
 45
297.0
 46
0.0
 47
0.0
 48
0.0
 49
0.0
140
0.0
141
0.0
142
1.0
143
0.1556420233
 70
   688
 72
     1
 73
     1
 74
     1
  7

 75
     0
147
6.425
148
20.0
149
18.7
100
AcDbLayout
  1
_Right
 70
     1
 71
     3
 10
0.0
 20
0.0
 11
0.0
 21
0.0
 12
0.0
 22
0.0
 32
0.0
 14
0.0
 24
0.0
 34
0.0
 15
0.0
 25
0.0
 35
0.0
146
0.0
 13
0.0
 23
0.0
 33
0.0
 16
1.0
 26
0.0
 36
0.0
 17
0.0
 27
1.0
 37
0.0
 76
     0
330
1AB
331
3CC
  0
LAYOUT
  5
1E
102
{ACAD_REACTORS
330
1A
102
}
330
1A
100
AcDbPlotSettings
  1

  2
none_device
  4
ISO_A4_(210.00_x_297.00_MM)
  6

 40
7.5
 41
20.0
 42
7.5
 43
20.0
 44
210.0
 45
297.0
 46
0.0
 47
0.0
 48
0.0
 49
0.0
140
0.0
141
0.0
142
1.0
143
0.1556420233
 70
   688
 72
     1
 73
     1
 74
     1
  7

 75
     0
147
6.425
148
20.0
149
18.7
100
AcDbLayout
  1
_Top
 70
     1
 71
     1
 10
-23.1128404669
 20
-19.8673151751
 11
23.1128404669
 21
12.8175097276
 12
0.0
 22
0.0
 32
0.0
 14
-20.0
 24
-18.7
 34
0.0
 15
20.0
 25
0.0
 35
0.0
146
0.0
 13
0.0
 23
0.0
 33
0.0
 16
1.0
 26
0.0
 36
0.0
 17
0.0
 27
1.0
 37
0.0
 76
     0
330
1B
331
3C8
  0
LAYOUT
  5
323
102
{ACAD_REACTORS
330
1A
102
}
330
1A
100
AcDbPlotSettings
  1

  2
none_device
  4
ISO_A4_(210.00_x_297.00_MM)
  6

 40
7.5
 41
20.0
 42
7.5
 43
20.0
 44
210.0
 45
297.0
 46
0.0
 47
0.0
 48
0.0
 49
0.0
140
0.0
141
0.0
142
1.0
143
0.1556420233
 70
   688
 72
     1
 73
     1
 74
     1
  7

 75
     0
147
6.425
148
20.0
149
18.7
100
AcDbLayout
  1
_Trimetric
 70
     1
 71
     7
 10
0.0
 20
0.0
 11
0.0
 21
0.0
 12
0.0
 22
0.0
 32
0.0
 14
0.0
 24
0.0
 34
0.0
 15
0.0
 25
0.0
 35
0.0
146
0.0
 13
0.0
 23
0.0
 33
0.0
 16
1.0
 26
0.0
 36
0.0
 17
0.0
 27
1.0
 37
0.0
 76
     0
330
322
331
3D4
  0
LAYOUT
  5
22
102
{ACAD_REACTORS
330
1A
102
}
330
1A
100
AcDbPlotSettings
  1

  2
none_device
  4
ANSI_A_(11.00_x_8.50_Inches)
  6

 40
6.35
 41
19.05
 42
6.35000508
 43
19.05000254
 44
279.4
 45
215.9
 46
133.34999746
 47
88.89999873
 48
0.0
 49
0.0
140
0.0
141
0.0
142
0.210375
143
1.0
 70
  1696
 72
     0
 73
     0
 74
     0
  7

 75
     0
147
0.0179189148
148
-1300.4909072572
149
0.0
100
AcDbLayout
  1
Model
 70
     1
 71
     0
 10
0.0
 20
0.0
 11
420.0
 21
297.0
 12
0.0
 22
0.0
 32
0.0
 14
-20.0
 24
-20.0
 34
0.0
 15
20.0
 25
20.0
 35
0.0
146
0.0
 13
0.0
 23
0.0
 33
0.0
 16
1.0
 26
0.0
 36
0.0
 17
0.0
 27
1.0
 37
0.0
 76
     0
330
1F
331
29
  0
MLINESTYLE
  5
18
102
{ACAD_REACTORS
330
17
102
}
330
17
100
AcDbMlineStyle
  2
Standard
 70
     0
  3

 62
   256
 51
90.0
 52
90.0
 71
     2
 49
0.5
 62
   256
  6
BYLAYER
 49
-0.5
 62
   256
  6
BYLAYER
  0
ACDBPLACEHOLDER
  5
F
102
{ACAD_REACTORS
330
E
102
}
330
E
  0
SCALE
  5
48
102
{ACAD_REACTORS
330
47
102
}
330
47
100
AcDbScale
 70
     0
300
1:1
140
1.0
141
1.0
290
     1
  0
SCALE
  5
49
102
{ACAD_REACTORS
330
47
102
}
330
47
100
AcDbScale
 70
     0
300
1:2
140
1.0
141
2.0
290
     0
  0
SCALE
  5
4A
102
{ACAD_REACTORS
330
47
102
}
330
47
100
AcDbScale
 70
     0
300
1:4
140
1.0
141
4.0
290
     0
  0
SCALE
  5
4B
102
{ACAD_REACTORS
330
47
102
}
330
47
100
AcDbScale
 70
     0
300
1:5
140
1.0
141
5.0
290
     0
  0
SCALE
  5
4C
102
{ACAD_REACTORS
330
47
102
}
330
47
100
AcDbScale
 70
     0
300
1:8
140
1.0
141
8.0
290
     0
  0
SCALE
  5
4D
102
{ACAD_REACTORS
330
47
102
}
330
47
100
AcDbScale
 70
     0
300
1:10
140
1.0
141
10.0
290
     0
  0
SCALE
  5
4E
102
{ACAD_REACTORS
330
47
102
}
330
47
100
AcDbScale
 70
     0
300
1:16
140
1.0
141
16.0
290
     0
  0
SCALE
  5
4F
102
{ACAD_REACTORS
330
47
102
}
330
47
100
AcDbScale
 70
     0
300
1:20
140
1.0
141
20.0
290
     0
  0
SCALE
  5
50
102
{ACAD_REACTORS
330
47
102
}
330
47
100
AcDbScale
 70
     0
300
1:30
140
1.0
141
30.0
290
     0
  0
SCALE
  5
51
102
{ACAD_REACTORS
330
47
102
}
330
47
100
AcDbScale
 70
     0
300
1:40
140
1.0
141
40.0
290
     0
  0
SCALE
  5
52
102
{ACAD_REACTORS
330
47
102
}
330
47
100
AcDbScale
 70
     0
300
1:50
140
1.0
141
50.0
290
     0
  0
SCALE
  5
53
102
{ACAD_REACTORS
330
47
102
}
330
47
100
AcDbScale
 70
     0
300
1:100
140
1.0
141
100.0
290
     0
  0
SCALE
  5
54
102
{ACAD_REACTORS
330
47
102
}
330
47
100
AcDbScale
 70
     0
300
2:1
140
2.0
141
1.0
290
     0
  0
SCALE
  5
55
102
{ACAD_REACTORS
330
47
102
}
330
47
100
AcDbScale
 70
     0
300
4:1
140
4.0
141
1.0
290
     0
  0
SCALE
  5
56
102
{ACAD_REACTORS
330
47
102
}
330
47
100
AcDbScale
 70
     0
300
8:1
140
8.0
141
1.0
290
     0
  0
SCALE
  5
57
102
{ACAD_REACTORS
330
47
102
}
330
47
100
AcDbScale
 70
     0
300
10:1
140
10.0
141
1.0
290
     0
  0
SCALE
  5
58
102
{ACAD_REACTORS
330
47
102
}
330
47
100
AcDbScale
 70
     0
300
100:1
140
100.0
141
1.0
290
     0
  0
SCALE
  5
59
102
{ACAD_REACTORS
330
47
102
}
330
47
100
AcDbScale
 70
     0
300
1/128" = 1'-0"
140
0.0078125
141
12.0
290
     0
  0
SCALE
  5
5A
102
{ACAD_REACTORS
330
47
102
}
330
47
100
AcDbScale
 70
     0
300
1/64" = 1'-0"
140
0.015625
141
12.0
290
     0
  0
SCALE
  5
5B
102
{ACAD_REACTORS
330
47
102
}
330
47
100
AcDbScale
 70
     0
300
1/32" = 1'-0"
140
0.03125
141
12.0
290
     0
  0
SCALE
  5
5C
102
{ACAD_REACTORS
330
47
102
}
330
47
100
AcDbScale
 70
     0
300
1/16" = 1'-0"
140
0.0625
141
12.0
290
     0
  0
SCALE
  5
5D
102
{ACAD_REACTORS
330
47
102
}
330
47
100
AcDbScale
 70
     0
300
3/32" = 1'-0"
140
0.09375
141
12.0
290
     0
  0
SCALE
  5
5E
102
{ACAD_REACTORS
330
47
102
}
330
47
100
AcDbScale
 70
     0
300
1/8" = 1'-0"
140
0.125
141
12.0
290
     0
  0
SCALE
  5
5F
102
{ACAD_REACTORS
330
47
102
}
330
47
100
AcDbScale
 70
     0
300
3/16" = 1'-0"
140
0.1875
141
12.0
290
     0
  0
SCALE
  5
60
102
{ACAD_REACTORS
330
47
102
}
330
47
100
AcDbScale
 70
     0
300
1/4" = 1'-0"
140
0.25
141
12.0
290
     0
  0
SCALE
  5
61
102
{ACAD_REACTORS
330
47
102
}
330
47
100
AcDbScale
 70
     0
300
3/8" = 1'-0"
140
0.375
141
12.0
290
     0
  0
SCALE
  5
62
102
{ACAD_REACTORS
330
47
102
}
330
47
100
AcDbScale
 70
     0
300
1/2" = 1'-0"
140
0.5
141
12.0
290
     0
  0
SCALE
  5
63
102
{ACAD_REACTORS
330
47
102
}
330
47
100
AcDbScale
 70
     0
300
3/4" = 1'-0"
140
0.75
141
12.0
290
     0
  0
SCALE
  5
64
102
{ACAD_REACTORS
330
47
102
}
330
47
100
AcDbScale
 70
     0
300
1" = 1'-0"
140
1.0
141
12.0
290
     0
  0
SCALE
  5
65
102
{ACAD_REACTORS
330
47
102
}
330
47
100
AcDbScale
 70
     0
300
1-1/2" = 1'-0"
140
1.5
141
12.0
290
     0
  0
SCALE
  5
66
102
{ACAD_REACTORS
330
47
102
}
330
47
100
AcDbScale
 70
     0
300
3" = 1'-0"
140
3.0
141
12.0
290
     0
  0
SCALE
  5
67
102
{ACAD_REACTORS
330
47
102
}
330
47
100
AcDbScale
 70
     0
300
6" = 1'-0"
140
6.0
141
12.0
290
     0
  0
SCALE
  5
68
102
{ACAD_REACTORS
330
47
102
}
330
47
100
AcDbScale
 70
     0
300
1'-0" = 1'-0"
140
12.0
141
12.0
290
     0
  0
ENDSEC
  0
EOF
